Song name
# A B C D E F G H I J K L M N O P Q R S T U V W X Y Z

Do Make Say Think - Anything For Now tab

----------------------------------------------------------------------------
            Anything For Now - Do Make Say Think
----------------------------------------------------------------------------
Tabbed by: Cale Weir
Email: super_happy_smile_man@hotmail.com

Tuning: Standard

I like to add delay.

e|-----------------0---------------------------------------------------------|
B|-----------------------4-4----4-4-----4-4----4-4---------------------------|
G|-11--11--11/13\8--8\6\4-4----4-4-----4-4----4-4-4/6------------------------|
D|--------------------------4/6-----4/6----4/6-------------------------------|
A|---------------------------------------------------------------------------|
E|---------------------------------------------------------------------------|

That's pretty much the whole song.

| /  slide up
| \  slide down
| h  hammer-on
| p  pull-off
| ~  vibrato
| +  harmonic
| x  Mute note
===============================================================================
Tap to rate this tab
# A B C D E F G H I J K L M N O P Q R S T U V W X Y Z