Song name
# A B C D E F G H I J K L M N O P Q R S T U V W X Y Z

Do - Song For Lovers tab

..Am................Em................Bb................F.......E
E-----------------|---------7-------|---------6-------|-----------------|
B-5-------5-------|-8---8-----8---8-|-----------6-----|---10------------|
G-5---5---5---5---|-9---9-------9---|-----7-------7---|-----10------9---|
D---7---7---7---7-|---------7-------|---8---8-------8-|-------10--9---9-|
A-----------------|---7---7---------|-8---------------|-8-------7-------|
E-------------5---|-----------------|-----------------|-----------------|

..Am................Em................Bb................F.......E
E-----------------|---------7-------|---------6-------|-----------------|
B-5-------5-------|-----8-----8---8-|-----------6-----|---10------------|
G-5---5---5---5---|-9-----------9---|-----7-------7---|-----10------9---|
D---7---7---7---7-|-----------------|---8---8-------8-|-------10--9---9-|
A-----------------|---7---7---------|-8---------------|-8-------7-------|
E-------------5---|-----------------|-----------------|-----------------|

..Em......Bm........A.................Dm......Am........G
E-----------------|---------5-------|-----1---0-------|---------3---3---|
B-8---8-----7-----|-------5---5-----|-------3---1-----|---0-------------|
G-9-----9-------7-|-6---6-------6---|--2/3--------2---|-----0-----------|
D---9---------9---|---7-----------7-|-3-------------2-|-------0---------|
A---------9-------|-----------------|-----------------|-----------------|
E-----------------|-----------------|-----------------|-3---------------| 
Tap to rate this tab
 
# A B C D E F G H I J K L M N O P Q R S T U V W X Y Z