Song name
# A B C D E F G H I J K L M N O P Q R S T U V W X Y Z

Doa - I Hate Punk Rock tab

-------------------------------------------------------------------------------
I Hate Punk Rock - D.O.A.
The Lost Tapes
-------------------------------------------------------------------------------
Tabbed by: axeslash
Email: holmzito@yahoo.com

Tuning: Standard Tuning

e|---------------------------------------| e|----------------------------|
B|---------------------------------------| B|----------------------------|
G|---------------------------------------| G|----------------------------|
D|-5-----------------5-5-4--4-4----------| D|--------5-5-4--4-4----------|
A|-3-5--------5-5--5-3-3-2--2-2-5--------| A|-5-5--5-3-3-2--2-2-5--------|
E|---3--------3-3--3------------3--------| E|-3-3--3------------3--------| x3

e|-----------------------------------------------------------------|
B|-----------------------------------------------------------------|
G|-7-7-7-7-7-7-7-7-5-5-5-5-5-5-5-5---------5-5-4-4---------5-5-4-4-|
D|-7-7-7-7-7-7-7-7-5-5-5-5-5-5-5-5-5-5-5-5-5-5-4-4-5-5-5-5-5-5-4-4-|
A|-5-5-5-5-5-5-5-5-3-3-3-3-3-3-3-3-5-5-5-5-3-3-2-2-5-5-5-5-3-3-2-2-|
E|---------------------------------3-3-3-3---------3-3-3-3---------| x2

e|----------------|
B|----------------|
G|----------------|
D|-5----5----5----|
A|-5----5----5----|
E|-3----3----3----|


| /  slide up
| \  slide down
| h  hammer-on
| p  pull-off
| ~  vibrato
| +  harmonic
| x  Mute note
===============================================================================
Tap to rate this tab
# A B C D E F G H I J K L M N O P Q R S T U V W X Y Z