Song name
# A B C D E F G H I J K L M N O P Q R S T U V W X Y Z

Doa - End tab

Artist:   Beyond Within
Song:     The End (I Become Death)
Album:    Eternal Pestilence
Year:     2006
Tuning:   D-Standard (DGCFAD)

-----------------------------------------------------------------------
Notes:

The basis of this tab was given to me by lead guitarist Chris.
He tabbed it out and sent it, I put the riffs in order and the
like so he gets credit. The solos aren't dead on but he said
this is what they're based around and he always improvises it
afterwards anyway so you'll have to as well. He also never got
around to giving me the lead bit over the chorus.
-----------------------------------------------------------------------

[] pinched harmonic
\  slide


 Intro:      Tremolo pick these
|-----------------------------------------|
|-----------------------------------------|
|-----------------------------------------|
|---------------------9----9-7------------|
|-\10-9-5----7-9-10-7---10-----9-10-9-7-5-|
|-----------------------------------------|


Verse:
|---------------------------------------------------------------------------------|
|---------------------------------------------------------------------------------|
|-9-------------------7-9-------------------8-9-----------------------------------|
|-9-------------------7-9-------------------8-9-----------------------5-4-5-12-10-|
|-7-------------------5-7-------------------6-7-----------------------3-2-3-10--9-|
|---0-0-0-0-0-0-0-0-0-----0-0-0-0-0-0-0-0-0-----0-0-0-0-0-0-0-0-0-0-0-------------|


Chorus Rhythm
|---------------------------------------|
|---------------------------------------|
|-9-9-9-9-9-5-5-5-5-5-7-7-7-7-7---------|
|-9-9-9-9-9-5-5-5-5-5-7-7-7-7-7---------|
|-7-7-7-7-7-3-3-3-3-3-5-5-5-5-5---5---4-|
|-------------------------------3---2---|

Verse:
|---------------------------------------------------------------------------------|
|---------------------------------------------------------------------------------|
|-9-------------------7-9-------------------8-9-----------------------------------|
|-9-------------------7-9-------------------8-9-----------------------5-4-5-12-10-|
|-7-------------------5-7-------------------6-7-----------------------3-2-3-10--9-|
|---0-0-0-0-0-0-0-0-0-----0-0-0-0-0-0-0-0-0-----0-0-0-0-0-0-0-0-0-0-0-------------|


Chorus Rhythm
|---------------------------------------|
|---------------------------------------|
|-9-9-9-9-9-5-5-5-5-5-7-7-7-7-7---------|
|-9-9-9-9-9-5-5-5-5-5-7-7-7-7-7---------|
|-7-7-7-7-7-3-3-3-3-3-5-5-5-5-5---5---4-|
|-------------------------------3---2---|

-Rest while keyboard plays then continue-

Bridge:                                                         *
|-----------------------------------------------------------|-------|
|-----------------------------------------------------------|-------|
|---------------------------------------------------------7-|---6---|
|---------------------------------------------------------7-|---6---|
|-4-4-4-4-4-4-4-4-5-4-4-4-4-4-4-4-7-4-4-4-4-4-4-4-4-4-4-4-5-|---4---|
|-----------------------------------------------------------|-------|

*only play last time just before the solo


Solo One (Use bridge underneath):
||--13-9-10----9----------------------------------------------------------------------||
||o---------12---10-12-9-10----9-----------------------------------------------------o||
||--------------------------11---10-11----10------------------------------------------||
||-------------------------------------12----11-12-9-11----9----------------------11--||
||o-----------------------------------------------------12---11-12-11-12-11-9-8-9----o||
||------------------------------------------------------------------------------------||


|-------------------------------------------------------9-10-13-10-9-10-13-10-9-10-13-10-9-10-13-10-9-10-13-10-9-10---|
|-----------------------------------------------9-10-12---------------------------------------------------------------|
|-----------------------------------------10-11-----------------------------------------------------------------------|
|---------------------------------9-11-12-----------------------------------------------------------------------------|
|---------9-11-12-11-9-11-9-11-12-------------------------------------------------------------------------------------|
|-9-10-13-------------------------------------------------------------------------------------------------------------|


|-12-13-16-13-12-13-16-13-12-13-22b24----|
|----------------------------------------|
|----------------------------------------|
|----------------------------------------|
|----------------------------------------|
|----------------------------------------|

|----------------------------------------------------------------|
|----------------------------------------------------------------|
|-6-6-6-6-6-6-6-6-7-6-6-6-6-6-6-6-9-6-6-6-6-6-6-6-6-6-6-6-[7]----|
|----------------------------------------------------------------|
|----------------------------------------------------------------|
|----------------------------------------------------------------|


|---------------------------------10-9-7-----------------------------------|
|----------------------------------------10-9-7-10-9-7---------------------|
|-6-6-6-6-6-6-6-6-7-6-6-6-6-6-6-6----------------------9-7-6-9-7-6-------7-|
|------------------------------------------------------------------9-7-6---|
|--------------------------------------------------------------------------|
|--------------------------------------------------------------------------|


|---------------------------------|--------------------------------|
|---------------------------------|--------------------------------|
|-6-6-6-6-6-6-6-6-7-6-6-6-6-6-6-6-|-9-6-6-6-6-6-6-6-6-6-6-6-[7]----|
|---------------------------------|--------------------------------|
|---------------------------------|--------------------------------|
|---------------------------------|--------------------------------|


|------------------------------------------------------------------------|
|------------------------------------------------------------------------|
|-6-6-6-6-6-6-6-6-7-6-6-6-6-6-6-6-------------------------------6-7-9-[7]|
|---------------------------------------------------6-7-9-6-7-9----------|
|---------------------------------------5-7-9-5-7-9----------------------|
|---------------------------------5-7-9----------------------------------|

Bridge:
|-----------------------------------------------------------|
|-----------------------------------------------------------|
|---------------------------------------------------------7-|
|---------------------------------------------------------7-|
|-4-4-4-4-4-4-4-4-5-4-4-4-4-4-4-4-7-4-4-4-4-4-4-4-4-4-4-4-5-|
|-----------------------------------------------------------|


Solo Two (Use bridge underneath):
|-10-9-7------------------------------------------------------------|
|--------10-9-7-10-9-7----------------------------------------------|
|----------------------9-7-6-9-7-6----------------------------------|
|----------------------------------9-7-6-9-7-6----------------------|
|----------------------------------------------9-7-5-9-7-5----------|
|----------------------------------------------------------9-7-5----|


|---------------------------------------9-10-13--9-10-13-10-9-10-13-10--12-13-16-13-12-13-16-13-|
|-------------------------------9-10-12---------------------------------------------------------|
|-------------------------10-11-----------------------------------------------------------------|
|-----------------9-11-12-----------------------------------------------------------------------|
|---------9-11-12-------------------------------------------------------------------------------|
|-9-10-13---------------------------------------------------------------------------------------|
Tap to rate this tab
 
# A B C D E F G H I J K L M N O P Q R S T U V W X Y Z