Song name
# A B C D E F G H I J K L M N O P Q R S T U V W X Y Z

Doa - Fucked Up Ronnie tab

Band:  D.O.A.
Song:  Fucked Up Ronnie
Album: Bloodied But Unbowed
Year:  1984

Tuning:                       
I play it 1 half step down:        but you can do it in standard:

Eb Bb Gb Db Ab Eb                  e B G D A E

Intro:

e----------------------------------||
B----------------------------------||
G----------------------------------||
D-5-5--5/-8------------------------||
A-3-3--3/-6-8-8-8------------------||
E-----------6-6-6------------------||



Chorus:

e----------------------------------||
B----------------------------------||
G----------------------------------||
D----------------------------------||
A-10-10-10-10-\-8\-6---------------||
E-8--8--8--8--\-6\-4---------------||



Verse:

e-------------------------------------||
B-------------------------------------||
G-------------------------------------||
D-5-5-x-x-x-x-x-x-8-------------------||
A-3-3-x-x-x-x-x-x-6-8-8-8-------------||
E-----x-x-x-x-x-x---6-6-6-------------||

with the verse section, just play as many ghost notes as you think necessary


Solo Rythm:
    
     Section I              Section II
e--------------------||---------------------||
B--------------------||---------------------||
G--------------------||---------------------||
D--------------------||---------8-8-8-------||
A-10-10-10-/-8-8-8---||10-10-10-6-6-6-------||
E-8--8--8--/-6-6-6---||8--8--8--------------||


Section II fill:

e---------||
B---------||
G---------||
D-12-10-8-||
A-10-8--6-||
E---------||



Outro:

e---------------------------------x-||
B--------------------------------x--||
G-------------------------------x---||
D-------5------5------5-x---x-5-----||
A---8-7-3--8-7-3--8-7-3-x-7-x-3-----||
E-0-6-5--0-6-5--0-6-5---x-5---------||
                       |-----------|
                        this just means throw in a few ghost notes here and
                        there, make it sound a little messy


Legend:

x= dead note
/ \= slide




Tabbed by Jeff
JAM66upyrs@msn.com





Tap to rate this tab
 
# A B C D E F G H I J K L M N O P Q R S T U V W X Y Z