Song name
# A B C D E F G H I J K L M N O P Q R S T U V W X Y Z

Doa - Disco Sucks tab

-------------------------------------------------------------------------------
Disco Sucks - D.O.A.
The Dawning Of A New Error
-------------------------------------------------------------------------------
Tabbed by: axeslash
Email: holmzito@yahoo.com

Tuning: Both Guitars Standard Tuning

Guitars 1 + 2   Guitars 1 + 2 
e|---------|    e|------------------------------------------------------------|
B|---------|    B|------------------------------------------------------------|
G|---------|    G|------------------------------------------------------------|
D|-3--5----|    D|-5/7-7-7-7--7-7-7-5/7-7-7-7--7-7-7-5/7-7-7-7--7-7-7-3--5----|
A|-1--3----|    A|-3/5-5-5-5--5-5-5-3/5-5-5-5--5-5-5-3/5-5-5-5--5-5-5-1--3----|
E|---------|    E|------------------------------------------------------------| x6

Guitars 1 + 2
e|-------------------------------------------------|
B|-------------------------------------------------|
G|-------------------------------------------------|
D|-----------------------------------------7--7--7-|
A|-5-5-5-5-5-5-5-5-5-5-5-5-5-5-5-5-3--3--3-5--5--5-|
E|-3-3-3-3-3-3-3-3-3-3-3-3-3-3-3-3-1--1--1---------| x2
  [X-X-X-X-X-X-X-X-X-X-X-X-X-X-X-X]

e|---------------------------------------------------------------|
B|---------------------------------------------------------------|
G|---------------------------------------------------------------|
D|------------------------------------------------5--5-5-5-5-5-5-|
A|-5-5-5-5-5-5-5-5-5-5-5-5-5-5-5-5-7--7-7-7-7-7-7-3--3-3-3-3-3-3-|
E|-3-3-3-3-3-3-3-3-3-3-3-3-3-3-3-3-5--5-5-5-5-5-5----------------|
  [X-X-X-X-X-X-X-X-X-X-X-X-X-X-X-X]

Solo:
Guitar 2:
e|-/10-10-10-10-10-10-10-10-/10-10-10-10-10-10-10-10-/10-10-10-10-10-10-10-10-10-8-X--6--6-6-|
B|-/10-10-10-10-10-10-10-10-/10-10-10-10-10-10-10-10-/10-10-10-10-10-10-10-10-10-8-X--6--6-6-|
G|-------------------------------------------------------------------------------------------|
D|-------------------------------------------------------------------------------------------|
A|-------------------------------------------------------------------------------------------|
E|-------------------------------------------------------------------------------------------|
Guitar 1:
e|------------------------------------------------------------|
B|------------------------------------------------------------|
G|------------------------------------------------------------|
D|-5/7-7-7-7--7-7-7-5/7-7-7-7--7-7-7-5/7-7-7-7--7-7-7-3--5----|
A|-3/5-5-5-5--5-5-5-3/5-5-5-5--5-5-5-3/5-5-5-5--5-5-5-1--3----|
E|------------------------------------------------------------|

Guitar 2:
e|-6-8-6-6--6-6--8--6-/10-10-10-10-10-10-10-10-10-10^-10^-10^-10^-10^-10^-10^-10^-10-8-X--6--6-|
B|-6-8-6-6--6-6--8--6-/10-10-10-10-10-10-10-10-10-10^-10^-10^-10^-10^-10^-10^-10^-10-8-X--6--6-|
G|---------------------------------------------------------------------------------------------|
D|---------------------------------------------------------------------------------------------|
A|---------------------------------------------------------------------------------------------|
E|---------------------------------------------------------------------------------------------|
Guitar 1:
e|------------------------------------------------------------|
B|------------------------------------------------------------|
G|------------------------------------------------------------|
D|-5/7-7-7-7--7-7-7-5/7-7-7-7--7-7-7-5/7-7-7-7--7-7-7-3--5----|
A|-3/5-5-5-5--5-5-5-3/5-5-5-5--5-5-5-3/5-5-5-5--5-5-5-1--3----|
E|------------------------------------------------------------|

Guitar 2:
e|-10-10^-10^-10^-10^-10-10^-10^-10^-10^-10-10^-10^-10^-10^-10-10^-10^-10^-10^-10-8-X-10^--10^-|
B|-10-10^-10^-10^-10^-10-10^-10^-10^-10^-10-10^-10^-10^-10^-10-10^-10^-10^-10^-10-8-X-10^--10^-|
G|---------------------------------------------------------------------------------------------|
D|---------------------------------------------------------------------------------------------|
A|---------------------------------------------------------------------------------------------|
E|---------------------------------------------------------------------------------------------|
Guitar 1:
e|------------------------------------------------------------|
B|------------------------------------------------------------|
G|------------------------------------------------------------|
D|-5/7-7-7-7--7-7-7-5/7-7-7-7--7-7-7-5/7-7-7-7--7-7-7-3--5----|
A|-3/5-5-5-5--5-5-5-3/5-5-5-5--5-5-5-3/5-5-5-5--5-5-5-1--3----|
E|------------------------------------------------------------|

Guitar 2:
e|-10-10-8-10-10-10-10-8-8-10-10-8-8-10-10-8-8-10-10-8-8-10-10-8-8-10-10-8-8-10--\\\\-|
B|-10-10-8-10-10-10-10-8-8-10-10-8-8-10-10-8-8-10-10-8-8-10-10-8-8-10-10-8-8-10--\\\\-|
G|---------------(at this point pick choppily and randomly)---------------------------|
D|------------------------------------------------------------------------------------|
A|------------------------------------------------------------------------------------|
E|------------------------------------------------------------------------------------|

e|------------------------------------------------------------|
B|------------------------------------------------------------|
G|------------------------------------------------------------|
D|-5/7-7-7-7--7-7-7-5/7-7-7-7--7-7-7-5/7-7-7-7--7-7-7-3--5----|
A|-3/5-5-5-5--5-5-5-3/5-5-5-5--5-5-5-3/5-5-5-5--5-5-5-1--3----|
E|------------------------------------------------------------| x5

Outro Solo
Guitar 2
e|-8-10-10-----------------------------------6----8----|
B|-8-10-10-8-10-10-8-10-8-10-10-8-10-10-8-10-6----8----|
G|-----------------------------------------------------|
D|-----------------------------------------------------|
A|-----------------------------------------------------|
E|-----------------------------------------------------|
Guitar 1
e|-------------------------------------------------------|
B|-------------------------------------------------------|
G|-------------------------------------------------------|
D|-5/7-7-7-5/7-7-7-5/7-7-5/7-7-7-5/7-7-7-5/7-7-3----5----|
A|-3/5-5-5-3/5-5-5-3/5-5-3/5-5-5-3/5-5-5-3/5-5-1----3----|
E|-------------------------------------------------------|

Guitar 2
e|----------------------8-10-10-8-10-10-8-10-6----8----|
B|-8-10-10-8-10-10-8-10-8-10-10-8-10-10-8-10-6----8----|
G|-----------------------------------------------------|
D|-----------------------------------------------------|
A|-----------------------------------------------------|
E|-----------------------------------------------------|
Guitar 1
e|-------------------------------------------------------|
B|-------------------------------------------------------|
G|-------------------------------------------------------|
D|-5/7-7-7-5/7-7-7-5/7-7-5/7-7-7-5/7-7-7-5/7-7-3----5----|
A|-3/5-5-5-3/5-5-5-3/5-5-3/5-5-5-3/5-5-5-3/5-5-1----3----|
E|-------------------------------------------------------|

Guitar 2
e|-8-10-10-8-10-10-8-10-8-10-10-8-10-10-8-10-8-10-10-8-10-10-8-10-10----|
B|-8-10-10-8-10-10-8-10-8-10-10-8-10-10-8-10-8-10-10-8-10-10-8-10-10----|
G|----------------------------------------------------------------------|
D|----------------------------------------------------------------------|
A|----------------------------------------------------------------------|
E|----------------------------------------------------------------------|
Guitar 1
e|------------------------------------------------------------------------|
B|------------------------------------------------------------------------|
G|------------------------------------------------------------------------|
D|-5/7-7-7-5/7-7-7-5/7-7-5/7-7-7-5/7-7-7-5/7-7-5/7-7-7-5/7-7-7-5/7-7-7----|
A|-3/5-5-5-3/5-5-5-3/5-5-3/5-5-5-3/5-5-5-3/5-5-3/5-5-5-3/5-5-5-3/5-5-5----|
E|------------------------------------------------------------------------|


| ^  note bend
| /  slide up
| \  slide down
| h  hammer-on
| p  pull-off
| ~  vibrato
| +  harmonic
| x  Mute note
===============================================================================
Tap to rate this tab
 
# A B C D E F G H I J K L M N O P Q R S T U V W X Y Z