Song name
# A B C D E F G H I J K L M N O P Q R S T U V W X Y Z

Doa - Race Riot tab

-------------------------------------------------------------------------------
Race Riot - D.O.A.
Dawning Of A New Error
-------------------------------------------------------------------------------
Tabbed by: axeslash
Email: holmzito@yahoo.com

Tuning: EADGBE (standard)

Guitar 1:
e|-12----12----12---12-----12----12----12---12-----|
B|----12----12----12---12-----12----12----12---12--|
G|-------------------------------------------------|
D|-------------------------------------------------|
A|-------------------------------------------------|
E|-------------------------------------------------|
Guitar 2:
e|-------------------------------------------------|
B|-------------------------------------------------|
G|-9--9--------------------9--9--------------------|
D|-9--9--------------------9--9--------------------|
A|-7--7--------------------7--7--------------------|
E|-------------------------------------------------|

Guitar 1:
e|-12----12----12---12-----12----12----12---12-----12----12----12---12-----12----12----12---12\\-|
B|----12----12----12---12-----12----12----12---12-----12----12----12---12-----12----12----12-----|
G|-----------------------------------------------------------------------------------------------|
D|-----------------------------------------------------------------------------------------------|
A|-----------------------------------------------------------------------------------------------|
E|-----------------------------------------------------------------------------------------------|
Guitar 2:
e|-----------------------------------------------------------------------------------------|
B|-----------------------------------------------------------------------------------------|
G|-9--9---------5-5-5----9--9---------5-5-5----9--9---------5-5-5----9--9---------5-5-5----|
D|-9--9-5--5--7-5-5-5----9--9-5--5--7-5-5-5----9--9-5--5--7-5-5-5----9--9-5--5--7-5-5-5----|
A|-7--7-5--5--7-3-3-3----7--7-5--5--7-3-3-3----7--7-5--5--7-3-3-3----7--7-5--5--7-3-3-3----|
E|------3--3--5---------------3--3--5---------------3--3--5---------------3--3--5----------|

Guitar 1:
e|---------------------------------------------------------------------------------------|
B|---------------------------------------------------------------------------------------|
G|-9--9---------5-5-5----9--9---------5-5-5----9--9---------5-5-5----9--9---------5-5-5--|
D|-9--9-5--5--7-5-5-5----9--9-5--5--7-5-5-5----9--9-5--5--7-5-5-5----9--9-5--5--7-5-5-5--|
A|-7--7-5--5--7-3-3-3----7--7-5--5--7-3-3-3----7--7-5--5--7-3-3-3----7--7-5--5--7-3-3-3--|
E|------3--3--5---------------3--3--5---------------3--3--5---------------3--3--5--------|
  [x--x-x--x--x]        [x--x-x--x--x]        [x--x-x--x--x]        [x--x-x--x--x--------|
Guitar 2:
e|---------------------------------------------------------------------------------------|
B|---------------------------------------------------------------------------------------|
G|-9--9---------5-5-5----9--9---------5-5-5----9--9---------5-5-5----9--9---------5-5-5--|
D|-9--9-5--5--7-5-5-5----9--9-5--5--7-5-5-5----9--9-5--5--7-5-5-5----9--9-5--5--7-5-5-5--|
A|-7--7-5--5--7-3-3-3----7--7-5--5--7-3-3-3----7--7-5--5--7-3-3-3----7--7-5--5--7-3-3-3--|
E|------3--3--5---------------3--3--5---------------3--3--5---------------3--3--5--------|
  [x--x-x--x--x-x-x-x]  [x--x-x--x--x-x-x-x]  [x--x-x--x--x-x-x-x]  [x--x-x--x--x-x-x-x--|

Guitar 1:
e|-------------------------------------------------------------------|
B|-------------------------------------------------------------------|
G|-9--9----5--5----7--7--9^--------9--9----5--5----7--7----9^--------|
D|-9--9----5--5----7--7--9^--------9--9----5--5----7--7----9^--------|
A|-7--7----3--3----5--5--7^--------7--7----3--3----5--5----7^--------|
E|-------------------------------------------------------------------|
Guitar 2:
e|-------------------------------------------------------------------|
B|-------------------------------------------------------------------|
G|-9--9----5--5----7--7--9---------9--9----5--5----7--7----9---------|
D|-9--9----5--5----7--7--9---------9--9----5--5----7--7----9---------|
A|-7--7----3--3----5--5--7---------7--7----3--3----5--5----7---------|
E|-------------------------------------------------------------------|

Guitar 1:
e|-12----12----12---12-----12----12----12---12----|
B|----12----12----12---12-----12----12----12---12-|
G|------------------------------------------------|
D|------------------------------------------------|
A|------------------------------------------------|
E|------------------------------------------------|
Guitar 2:
e|---------------------------------------------|
B|---------------------------------------------|
G|-9--9---------5-5-5----9--9---------5-5-5----|
D|-9--9-5--5--7-5-5-5----9--9-5--5--7-5-5-5----|
A|-7--7-5--5--7-3-3-3----7--7-5--5--7-3-3-3----|
E|------3--3--5---------------3--3--5----------|

Guitar 1:
e|---------------------------------------------------------------------------------------|
B|---------------------------------------------------------------------------------------|
G|-9--9---------5-5-5----9--9---------5-5-5----9--9---------5-5-5----9--9---------5-5-5--|
D|-9--9-5--5--7-5-5-5----9--9-5--5--7-5-5-5----9--9-5--5--7-5-5-5----9--9-5--5--7-5-5-5--|
A|-7--7-5--5--7-3-3-3----7--7-5--5--7-3-3-3----7--7-5--5--7-3-3-3----7--7-5--5--7-3-3-3--|
E|------3--3--5---------------3--3--5---------------3--3--5---------------3--3--5--------|
  [x--x-x--x--x]        [x--x-x--x--x]        [x--x-x--x--x]        [x--x-x--x--x--------|
Guitar 2:
e|---------------------------------------------------------------------------------------|
B|---------------------------------------------------------------------------------------|
G|-9--9---------5-5-5----9--9---------5-5-5----9--9---------5-5-5----9--9---------5-5-5--|
D|-9--9-5--5--7-5-5-5----9--9-5--5--7-5-5-5----9--9-5--5--7-5-5-5----9--9-5--5--7-5-5-5--|
A|-7--7-5--5--7-3-3-3----7--7-5--5--7-3-3-3----7--7-5--5--7-3-3-3----7--7-5--5--7-3-3-3--|
E|------3--3--5---------------3--3--5---------------3--3--5---------------3--3--5--------|
  [x--x-x--x--x-x-x-x]  [x--x-x--x--x-x-x-x]  [x--x-x--x--x-x-x-x]  [x--x-x--x--x-x-x-x--|

Guitar 1:
e|--------------------------------------------------------------------------------------|
B|--------------------------------------------------------------------------------------|
G|-9--9----5--5----7--7--9^--------9--9----5--5----7--7----9^--------9^-----------------|
D|-9--9----5--5----7--7--9^--------9--9----5--5----7--7----9^--------9^-----------------|
A|-7--7----3--3----5--5--7^--------7--7----3--3----5--5----7^---------------------------|
E|--------------------------------------------------------------------------------------|
Guitar 2:
e|--------------------------------------------------------------------------------------|
B|--------------------------------------------------------------------------------------|
G|-9--9----5--5----7--7--9---------9--9----5--5----7--7----9----------------------------|
D|-9--9----5--5----7--7--9---------9--9----5--5----7--7----9----------------------------|
A|-7--7----3--3----5--5--7---------7--7----3--3----5--5----7-----------------------x\---|
E|---------------------------------------------------------------------------------x\---|

Nice little pause here.

Guitar 1:
e|-------------------------------------------------------------------|
B|-------------------------------------------------------------------|
G|-9--9----5--5----7--7--9^--------9--9----5--5----7--7----9^--------|
D|-9--9----5--5----7--7--9^--------9--9----5--5----7--7----9^--------|
A|-7--7----3--3----5--5--7^--------7--7----3--3----5--5----7^--------|
E|-------------------------------------------------------------------|
Guitar 2:
e|-------------------------------------------------------------------|
B|-------------------------------------------------------------------|
G|-9--9----5--5----7--7--9---------9--9----5--5----7--7----9---------|
D|-9--9----5--5----7--7--9---------9--9----5--5----7--7----9---------|
A|-7--7----3--3----5--5--7---------7--7----3--3----5--5----7---------|
E|-------------------------------------------------------------------|

Guitar 1:
e|------------------------------------------------------------------|
B|------------------------------------------------------------------|
G|-9--9----5--5----7--7--9^--------9--9----5--5----7--7----9--------|
D|-9--9----5--5----7--7--9^--------9--9----5--5----7--7----9--------|
A|-7--7----3--3----5--5--7^--------7--7----3--3----5--5----7--------|
E|------------------------------------------------------------------|
Guitar 2:
e|------------------------------------------------------------------|
B|------------------------------------------------------------------|
G|-9--9----5--5----7--7--9---------9--9----5--5----7--7----9--------|
D|-9--9----5--5----7--7--9---------9--9----5--5----7--7----9--------|
A|-7--7----3--3----5--5--7---------7--7----3--3----5--5----7--------|
E|------------------------------------------------------------------|

| ^ quarter note bend with vibrato
|[x] palm mute
| /  slide up
| \  slide down
| h  hammer-on
| p  pull-off
| ~  vibrato
| +  harmonic
| x  Mute note
===============================================================================
Tap to rate this tab
# A B C D E F G H I J K L M N O P Q R S T U V W X Y Z