Song name
# A B C D E F G H I J K L M N O P Q R S T U V W X Y Z

Dobri Isak - Mi Placemo Iza Tamnih Naocara tab

Tema (bass):
E|--------------------------------------------------|
B|--------------------------------------------------|
G|--------------------------------------------------|
D|--------------------------------------------------|
A|--------------7--7--7--7--------------5--5--------|
E|--5--5--5--5--------------8--8--8--8--------7--7--|


Am         G
Neki ljudi ne jure zene
Oni nikad nisu sami, a mi
Mi umiremo za svakom koja prodje
Mi cvilimo za svakom od njih, mi
Sidjemo u bar
Mi znamo starog dobrog Aleksa, mi
Sednemo za sto i pricamo nocima

Am        G
Lose zene prilaze
Lose zene gledaju
One zvizde za nama
One sire zarazu
One kazu aa, aa, aa
I umiru za nama
One kazu aa, aa, aa
A mi ga cuvamo za vas

E|--------------------------|
B|--------------------------|
G|--------------------------|
D|--------------------------|
A|--------------------------|
E|--5--5--5--0--3--3--3--0--|

Am           G
Mnoge zene su same sa svecom
One je miluju, a mi
Mi stojimo na ulici
I proklinjemo sto smo rodjeni, mi
Sidjemo u bar
Mi znamo starog dobrog Aleksa, mi
Sednemo i placemo iza tamnih naocara

Am        G
Lose zene prilaze
Lose zene gledaju
One zvizde za nama
One vole haljine
One kazu aa, aa, aa
I umiru za nama
One kazu aa, aa, aa
A mi ga cuvamo za vas

E|--------------------------|
B|--------------------------|
G|--------------------------|
D|--------------------------|
A|--------------------------|
E|--5--5--5--0--3--3--3--0--|

Am         G
Neki ljudi ne jure zene
Oni nikad nisu sami, a mi
Mi stojimo na ulici
I proklinjemo sto smo rodjeni, mi
Sidjemo u bar
Mi znamo starog dobrog Aleksa, mi
Sednemo i placemo iza tamnih naocara

Am        G
Lose zene prilaze
Lose zene gledaju
One zvizde za nama
One vole haljine
One kazu aa, aa, aa
I umiru za nama
One kazu aa, aa, aa
A mi ga cuvamo za vas

Transkripcija: Stevan Golubovic
http://en.wikipedia.org/wiki/Dobri_Isak
Tap to rate this tab
# A B C D E F G H I J K L M N O P Q R S T U V W X Y Z