Guitaretab - guitar tabs
Song name
# A B C D E F G H I J K L M N O P Q R S T U V W X Y Z

Doc Watson - Summertime tab

Summertime ~ Doc & Merle Watson
from "The Elementary Doctor Watson!"

Merle's first solo (0:07 - 0:44):
E|-------------------------------------------------------|
B|-12-12-10\8---10/12-12-12~-8-10-8-10-10b-8h10p8--------|
G|------------9-----------------------------------9------|
D|--------------------------------------------------9-9~-|
A|-------------------------------------------------------|
e|-------------------------------------------------------|

E|----------------------------------------|
B|-12-12-10\8---10-10-10-------8---8-7----|
G|------------9----------7h9-9---9--------|
D|-------------------------------------9~-|
A|----------------------------------------|
e|----------------------------------------|

E|-------------------------------------------------------|
B|-12-12-10\8---10/12-12-12~-8-10-8-10-10b-8h10p8--------|
G|------------9-----------------------------------9------|
D|--------------------------------------------------9-9~-|
A|-------------------------------------------------------|
e|-------------------------------------------------------|

E|---------------------------------------------------7------------------------|
B|---------------------------8-10-10b-10-8---8h10-10---10-8-------------------|
G|-----7----------7---7-9~-9---------------9----------------9~---7---7---7----|
D|-7/9---9-9~-9-9---9----------------------------------------------9---9---9~-|
A|----------------------------------------------------------------------------|
e|----------------------------------------------------------------------------|

[ Tab from: http://www.guitaretab.com/d/doc-watson/275979.html ]
Second solo (1:57 - 2:34):
E|-------------------------------------------------------|
B|-12-12-10\8---10/12-12-12~-8-10-8-10-10b-8h10p8--------|
G|------------9-----------------------------------9------|
D|--------------------------------------------------9-9~-|
A|-------------------------------------------------------|
e|-------------------------------------------------------|

E|----------------------------------------|
B|-12-12-10-8---10-10-10-------8---8-7----|
G|------------9----------7h9-9---9--------|
D|-------------------------------------9~-|
A|----------------------------------------|
e|----------------------------------------|

E|--------------------------10----10-12/15-15-12-----------------------------|
B|-12-12-10\8---10/12-12-12----12----------------15-12-----------------------|
G|------------9----------------------------------------14p12--14p12----12----|
D|------------------------------------------------------------------14----14-|
A|---------------------------------------------------------------------------|
e|---------------------------------------------------------------------------|

E|-----------6p5--------------------------------------12-15b-12-----------------------|
B|---------8-----8-5-5~------------------8-9-10-12-15-----------15-12-----------------|
G|-----7-9--------------------7---7-9~-9------------------------------14p12----12-----|
D|-9-9------------------7/9-9---9-------------------------------------------14----14~-|
A|------------------------------------------------------------------------------------|
e|------------------------------------------------------------------------------------|

E|----------------|
B|----------------|
G|-9p7---7---7----|
D|-----9---9---9~-|
A|----------------|
e|----------------|


For Merle's accompaniment during the verses, improvise in the same key.
Related for Summertime tab
Summertime chords by Doc Watson