Song name
# A B C D E F G H I J K L M N O P Q R S T U V W X Y Z

Doc Watson - Beaumont Rag tab

Beaumont Rag - Doc Watson

tabbed by Alex (Zandy) Wight

(Capo 2)

     Q     Q     Q    Q       E  E  E  E  E  E  E  E   
E||-------(0)---------0----|--1--3--1--0-----0--------|
B||--------2-----3---------|--------------3-----3--0--|
G||------------------------|--------------------------|
D||------------------------|--------------------------|
A||------------------------|--------------------------|
E||------------------------|--------------------------|


  E  E  E  E  E  E  E  E     E  E  E  E  E  E  E   E    
--------------------------|-----0-----0----------------|
-----0-----0-----------0--|--4-----4-----1--------(1)--|
--3-----3-----0--2--0-----|-----------------2--0-------|
--------------------------|----------------------------|
--------------------------|----------------------------|
--------------------------|----------------------------|


  E  E  E  E  E  E  E  E     E  E  E  E  E  E  E  E   
--------------------------|-----------------1--1--1--|
--------------------------|-----------------0--0--0--|
--2--0--------0--2--0-----|-----------0-----------L--|
--------2--3-----------2--|--0--2--3-----x-----------|
--------------------------|--------------------------|
--------------------------|--------------------------|


  E  E  E  Q    E  E  E     E  E  E  E  E  E  E  E   
-------------------------|--------------------------|
-------------------------|--------------------------|
-----------0----2--0-----|--------------0--2--0-----|
--0--2--3-------------2--|-----0--2--3-----------2--|
-------------------------|--3-----------------------|
-------------------------|--------------------------|


  E  E  E  E  E  E  Q       S. Q    T Q    E  Q     
-------------------------|--0h-1----L-L----1--1----|
-------------------------|------------3----3--3----|
--------------0--2--0----|-------------------------|
-----0--2--3-------------|-------------------------|
--3-----------------2----|-------------------------|
-------------------------|-------------------------|


  E  Q    E  E  E  E  E     E  E  E  E  E  E  E  E   
-------------------------|-----0-----0--------------|
----------------------0--|--4-----4-----1--------1--|
--3--4-------0--2--0-----|-----------------2--0-----|
----------5--------------|--------------------------|
-------------------------|--------------------------|
-------------------------|--------------------------|


  E  E  E  E  E  E  E  E     E  E  E  E  Q    E  E   
--------------------------|-------------------------|
--------------------------|-----------0--1----3--1--|
--2--0-----0--0--------0--|-----0--2----------------|
--------2--------2--------|--3----------------------|
--------------------3-----|-------------------------|
--------------------------|-------------------------|


  E  E  E  E  Q    E  E     E  E  E  E  E  E  E  E   
-----0-------------------|--------------------------|
--4-----1----------------|--0-----------------------|
-----------2--0----2--0--|-----2--0-----------0-----|
-------------------------|-----------3--2--0-----2--|
-------------------------|--------------------------|
-------------------------|--------------------------|


  Q    E  E   E    E   E  E     E  E  E  E  E  E  E  E   
-------------(0)--(3)--------|--L-----------------------|
-------1--1------------------|--------------------------|
-------0--0--------0---------|--------0-----L--2-----L--|
-----------------------------|-----0--------0--------0--|
--3--------------------0--1--|--2--------2--------2-----|
-----------------------------|--------------------------|


  E  E  E  E  E  E  E  E     E  E  E  E  E  E  E  E   
--------------------------|--------------------------|
--------------------------|--------------------------|
--0-----L--2-----0-----L--|--------0-----L--2-----L--|
--------0--------------0--|-----2--------2--------2--|
-----2--------2-----2-----|--3--------3--------3-----|
--------------------------|--------------------------|


  E  E  E  E  E  E  E  E     E  E  E  E  E  E  E  E   
--------------------------|--------------------------|
--------------------------|--------------------------|
--0-----L--2-----0-----L--|--------0-----L--2--L--0--|
--------2-----2--------2--|-----0-----0--0-----------|
-----3--------------3-----|--2-----------------2-----|
--------------------------|--------------------------|


  E  E  E  E   E   E  E  E     E  E  E  E  E  E  E  E   
----------------------------|--------------------------|
-------------------------0--|--1--------1--------------|
--0--------2--(2)--0--2-----|-----2--0-----2--0--------|
-----0--0-------------------|--------------------2--3--|
----------------------------|--------------------------|
----------------------------|--------------------------|


  E  E  E  E  E  E  E  E     E  E  E  E  E  E  E  E   
--------------------------|--------------------------|
--------------------------|--------------------------|
--0--2--0-----------------|--------0-----L--2-----L--|
-----------2--0-----------|-----0-----0--0--------0--|
-----------------3--0--1--|--2-----------------2-----|
--------------------------|--------------------------|


  E  E  E  E  E  E  E  E     E  E  E  E  E  E  E  E   
--------------------------|--------------------------|
--------------------------|--------------------------|
--0-----L--2-----0-----L--|--------0-----L--2-----L--|
-----0-----------------0--|-----2--------2--------2--|
--------2-----2-----2-----|--3--------3--------3-----|
--------------------------|--------------------------|


  E  E  E  E  E  E  E  E     E  E  E  E  Q    E  E   
--------------------------|-------------------------|
--------------------------|-----------0--1----3--1--|
--0-----L--2-----0-----L--|-----0--2----------------|
-----2--------2-----2--0--|--3----------------------|
--------3-----------------|-------------------------|
--------------------------|-------------------------|


  E  E  E  E  Q    E  E     E  E  E  E  E  E  E  E   
-----0-------------------|--------------------------|
--4-----1----------------|--0-----------------------|
-----------2--0----2--0--|-----2--0-----------0-----|
-------------------------|-----------3--2--0-----2--|
-------------------------|--------------------------|
-------------------------|--------------------------|


  Q    E  E  E  E  Q       E   E   E   S S Q.     E   
------------------------|-----(x)--4s--5---1---------|
------------------------|-----(x)--5s--6---3------3--|
-------0--L-----0--0----|--L-------------------------|
-------2-----2----------|----------------------------|
--3-------3-------------|----------------------------|
------------------------|----------------------------|


  E   E  E  Q    E  Q       E  E   E   E   Q    E  E   
-------------------------|-----2s--3--(0)--0----L-----|
--2s--3-----0-------0----|--L--4s--5--(5)--5----L-----|
--3s--4-----0----2--0----|--L--------------5----L--0--|
-------------------------|----------------------5-----|
-------------------------|----------------------------|
-------------------------|----------------------------|


  E  E  E  E  E  E  E  E     E  E  E  Q    E  E  E   
--------------------------|----------------1--1--L--|
--------------------------|----------------0--0--0--|
--2--0--------0--2--0-----|-----------0----------L--|
--------2--3-----------2--|--0--2--3----------------|
--------------------------|-------------------------|
--------------------------|-------------------------|


  E  E  E  Q    E  E  E     E  E  E  E  E  E  E  E   
-------------------------|--------------------------|
-------------------------|--------------------------|
-----------0----2--0-----|--------------0--2--0-----|
--0--2--3-------------2--|-----0--2--3-----------2--|
-------------------------|--3-----------------------|
-------------------------|--------------------------|


  E  E  E  E  E  E  Q       E   E  E  E  Q.     E   
-------------------------|--4s--5-----x--1---------|
-------------------------|--5s--6-----x--3------0--|
--------------0--2--0----|-------------------------|
-----0--2--3-------------|-------------------------|
--3----------------------|-------------------------|
-------------------------|-------------------------|


  E   E  E  Q    E  Q       E   E  E  E  Q    E  E   
-------------------------|--2s--3--x--0--0----L-----|
--2s--3-----0-------0----|--4s--5--x-----5----L-----|
--3s--4-----0----2--0----|---------------5----L--0--|
-------------------------|--------------------5-----|
-------------------------|--------------------------|
-------------------------|--------------------------|


  E  E  E  E   E   E  E  E     E  E  E  E  Q    E  E   
----------------------------|-------------------------|
--------------(1)-----------|-----------0--1----3--1--|
--2--0-----0-------------0--|-----0--2----------------|
--------2----------2--------|--3----------------------|
----------------------3-----|-------------------------|
----------------------------|-------------------------|


  E  E  E  E  Q    E  E     E  E  E  E  E  E  E  E   
-----0-------------------|--------------------------|
--4-----1----------------|--0-----------------------|
-----------2--0----2--0--|-----2--0-----------0-----|
-------------------------|-----------3--2--0-----2--|
-------------------------|--------------------------|
-------------------------|--------------------------|


  Q    E   E   E  E  E  E     E  E  E  E  E  E  E  E   
---------------------------|--------------------------|
----------(1)--------------|--------------------------|
-------0---L---------------|--------0-----L--2-----L--|
------------------0--------|-----0-----0--0--------0--|
--3------------3-----0--1--|--2--------2--------2-----|
---------------------------|--------------------------|


  E  E  E  E  E  E  E  E     E  E  E  E  E  E  E  E   
--------------------------|--------------------------|
--------------------------|--------------------------|
--0-----L--2-----0-----L--|--------0-----L--2-----L--|
-----0--0--------------0--|-----2--------2--------2--|
-----2--------2-----2-----|--3--------3--------3-----|
--------------------------|--------------------------|


  E  E  E  E  E  E  E  E     E  E  E  E  E  E  E  E   
--------------------------|--------------------------|
--------------------------|--------------------------|
--0-----L--2-----0-----L--|--------0--L--0--2--L-----|
--------2-----2--------0--|-----0-----------------0--|
-----3--------------3-----|--2--------2--------2-----|
--------------------------|--------------------------|


  E  E  E  E  E  E  E  E     E  E  E  E  E  E  E  E   
--------------------------|--------------------------|
-----------------------0--|--1--------1--------------|
--0--------2-----0--2-----|-----2--0-----2--0--------|
-----0--------------------|--------------------2--3--|
--------2-----2-----------|--------------------------|
--------------------------|--------------------------|


  E  E  E  E  E  E  E  E     E  E  E  E  E  E  E  E   
--------------------------|--------------------------|
--------------------------|--------------------------|
--0--2--0-----------------|--------0-----L--2-----L--|
-----------2--0-----------|-----0--------0--------0--|
-----------------3--0--1--|--2--------2--------2-----|
--------------------------|--------------------------|


  E  E  E  E  E  E  E  E     E  E  E  E  E  E  E  E   
--------------------------|--------------------------|
--------------------------|--------------------------|
--0-----L--2-----0-----L--|--------0-----L--2-----L--|
-----0--0--------------0--|-----2--------2--------2--|
--------2-----2-----2-----|--3--------3--------3-----|
--------------------------|--------------------------|


  E  E  E  E  E  E  E  E     E  E  E  E  Q    E  E   
--------------------------|-------------------------|
--------------------------|-----------0--1----3--1--|
--0-----L--2-----0-----L--|-----0--2----------------|
--------2-----2-----2--0--|--3----------------------|
-----3--------------------|-------------------------|
--------------------------|-------------------------|


  E  E  E  E  Q    E  E     E  E  E  E  E  E  E  E   
-----0-------------------|--------------------------|
--4-----1----------------|--0-----------------------|
-----------2--0----2--0--|-----2--0-----------0-----|
-------------------------|-----------3--2--0-----2--|
-------------------------|--------------------------|
-------------------------|--------------------------|


  Q    E  Q    E   E    E      E  E  E  E  E  E  E  E   
------------------(0)--(0)--|--1--3--1--0--------------|
-------1--1--------1----1---|--------------3--0--3--0--|
-------0--0----0--------L---|--------------------------|
-------2--2-------------L---|--------------------------|
--3----L--3-------------L---|--------------------------|
----------------------------|--------------------------|


  E  E  E  E  E  E  E  E     E  E  E  E  E  E  E  E   
--------------------------|-----0-----0--------------|
-----0-----0-----------0--|--4-----4-----1--------1--|
--3-----3-----0--2--0-----|-----------------2--0-----|
--------------------------|--------------------------|
--------------------------|--------------------------|
--------------------------|--------------------------|


  E  E  E  E  E  E  E  E     E  E  E  E  E  E  E  E   
--------------------------|-----------------1--1--1--|
--------------------------|-----------------0--0--0--|
--2--0--------0--2--0-----|-----------0-----------L--|
--------2--3-----------2--|--0--2--3-----x-----------|
--------------------------|--------------------------|
--------------------------|--------------------------|


  E  E  E  Q    E  E  E     E  E  E  E  E  E  E  E   
-------------------------|--------------------------|
-------------------------|--------------------------|
-----------0----2--0-----|--------------0--2--0-----|
--0--2--3-------------2--|-----0--2--3-----------2--|
-------------------------|--3-----------------------|
-------------------------|--------------------------|


  E  E  E  E  E  E  E  E     E  E  E  E  E  E  E  E   
--------------------------|--1--3--1--0--------------|
--------------------------|--------------3--0--3--0--|
--------------0--2--0-----|--------------------------|
-----0--2--3--------------|--------------------------|
--3--------------------2--|--------------------------|
--------------------------|--------------------------|


  E  E  E  E  E  E  E  E     E  E  E  E  E  E  E  E   
--------------------------|-----0-----0--------------|
-----0-----0-----------0--|--4-----4-----1--------1--|
--3-----3-----0--2--0-----|-----------------2--0-----|
--------------------------|--------------------------|
--------------------------|--------------------------|
--------------------------|--------------------------|


  E  E  E  E   E   E  E  E     E  E  E  E  Q    E  E   
----------------------------|-------------------------|
--------------(1)-----------|-----------0--1----3--1--|
--2--0-----0-------------0--|-----0--2----------------|
--------2----------2--------|--3----------------------|
----------------------3-----|-------------------------|
----------------------------|-------------------------|


  E  E  E  E  Q    E  E     E  E  E  E  E  E  E  E   
-----0-------------------|--------------------------|
--4-----1----------------|--0-----------------------|
-----------2--0----2--0--|-----2--0-----------0-----|
-------------------------|-----------3--2--0-----2--|
-------------------------|--------------------------|
-------------------------|--------------------------|


  Q    E  E  E  E  E  E     E  E  E  E  E  E  E  E   
-------------------------|--------------------------|
----------1--------------|--------------------------|
-------0--L--0-----------|--------0-----L--2-----L--|
-------2-----2--x--------|-----0-----0--0--------0--|
--3-------------x--0--1--|--2--------2--------2-----|
-------------------------|--------------------------|


  E  E  E  E  E  E  E  E     E  E  E  E  E  E  E  E   
--------------------------|--------------------------|
--------------------------|--------------------------|
--0-----L--2-----0-----L--|--------0-----L--2--L-----|
-----0--0--------------0--|-----2--------2--------2--|
-----2--------2-----2-----|--3--------3--------3-----|
--------------------------|--------------------------|


  E  E  E  E  E  E  E  E     E  E  E  E  E  E  E  E   
--------------------------|--------------------------|
--------------------------|--------------------------|
--0-----L--2-----0-----L--|--------0--L-----2--L-----|
--------2-----2--------0--|-----0-----0--0--------0--|
-----3--------------3-----|--2--------2--------2-----|
--------------------------|--------------------------|


  E  E  E  E  E  E  E  E     E  H.           E     H.           E  E   
--------------------------|---------------------|---------------------|
-----------------------0--|--1------------------|---------------------|
--0--------2-----0--2-----|--0------------------|---------------------|
-----0--0-----------------|--2------------------|---------------------|
-----2--------2-----------|---------------------|---------------0--1--|
--------------------------|---------------------|---------------------|


  E  E  E  E  E  E  E  E     E  E  E  E  E  E  E  E   
--------------------------|--------------------------|
--------------------------|--------------------------|
--------0-----L--2--L-----|--0-----L--2-----0-----L--|
-----0--------0--------0--|-----0--0--------------0--|
--2--------2--------2-----|--------2-----2-----2-----|
--------------------------|--------------------------|


  E  E  E  E  E  E  E  E     E  E  E  E  E  E  E  E   
--------------------------|--------------------------|
--------------------------|--------------------------|
--------0-----L--2--L-----|--0-----L--2-----0--L--0--|
-----2-----2--2--------2--|-----2--2-----2-----2-----|
--3--------3--------3-----|-----3--------------------|
--------------------------|--------------------------|


  E  E  E  E  Q    E  E     E  E  E  E  Q    E  E   
-------------------------|-----0-------------------|
-----------0--1----3--1--|--4-----1----------------|
-----0--2----------------|-----------2--0----2--0--|
--3----------------------|-------------------------|
-------------------------|-------------------------|
-------------------------|-------------------------|


  E  E  E  E  E  E  E  E     E  E  E  E  E  Q.      
--------------------------|------------------------|
--0-----------------------|------------------------|
-----2--0-----------0-----|------------------------|
-----------3--2--0-----2--|------------------------|
--------------------------|--3-----------3---------|
--------------------------|--------3---------------|


  E  E  E  E  E  E  E  E     E  E  E  E  E  E  E  E   
--------------------------|--------------------------|
--------------------------|--------------------------|
--------------------------|--------------------------|
--------------------------|--------------------0--1--|
--3-----------------------|-----0--2-----3-----------|
--------3--3--4-----0--1--|--3-----------------------|


                                         ^                             
  E  E  E  E  E  E  E  E     E  E  E  E  H        
--------------------------|--------------0--------||
-----------0--1-----------|--------------1--------||
-----0--2--------2--0-----|--------------0--------||
--2--------------------2--|--0-----------2--------||
--------------------------|-----2--------3--------||
--------------------------|--------3--------------||





***********************************************************************
RHYTHM GUITAR PART
***********************************************************************
     Q    Q    Q    Q       Q    Q    Q    Q       Q    Q    Q    Q     
E||----------------------|-------3---------3----|-------3---------3----|
B||----------------------|-------2---------2----|-------2---------2----|
G||----------------------|-------2---------2----|-------2---------2----|
D||----------------------|------------2----L----|------------2----L----|
A||----------------------|--0----L--------------|--0----L--------------|
E||----------------------|----------------------|----------------------|


  Q    Q    Q    Q       Q    Q    Q    Q       Q    Q    Q    Q     
-------2---------2----|-------2---------2----|-------3---------3----|
-------3---------3----|-------3---------3----|-------2---------2----|
-------2---------2----|-------2---------2----|-------2---------2----|
--0----L--------------|--0----L----0----L----|------------2----L----|
------------0----L----|----------------------|--0----L--------------|
----------------------|----------------------|----------------------|


  Q    Q    Q    Q       Q    Q    Q    Q       Q    Q    Q    Q     
-------3---------3----|-------2---------2----|-------2---------2----|
-------2---------2----|-------3---------3----|-------3---------3----|
-------2---------2----|-------2---------2----|-------2---------2----|
------------2----L----|--0----L--------------|--0----L----0----L----|
--0----L--------------|------------0----L----|----------------------|
----------------------|----------------------|----------------------|


  Q    Q    Q    Q       Q    Q    Q    Q       Q    Q    Q    Q     
-------3---------3----|-------3---------3----|-------2---------2----|
-------2---------2----|-------2---------2----|-------3---------3----|
-------2---------2----|-------2---------2----|-------2---------2----|
------------2----L----|------------2----L----|--0----L--------------|
--0----L--------------|--0----L--------------|------------0----L----|
----------------------|----------------------|----------------------|


  Q    Q    Q    Q       Q    Q    Q    Q       Q    Q    Q    Q     
-------2--------------|-------3--------------|-------2--------------|
-------3--------------|-------0--------------|-------3--------------|
-------2--------------|-------0--------------|-------2--------------|
--0----L--------------|----------------------|--0----L--------------|
----------------------|------------0----2----|------------4----2----|
------------0----2----|--3----L--------------|----------------------|


  Q    Q    Q    Q       Q    E  E  Q    E  E     Q    Q    Q    Q     
-------3--------------|-------2--2-------2--2--|-------3---------3----|
-------2--------------|-------3--3-------3--3--|-------2---------2----|
-------2--------------|-------2--2-------2--2--|-------2---------2----|
----------------------|--0-------L-------------|------------2----L----|
--0----L----0----2----|-------------0-------L--|--0----L--------------|
----------------------|------------------------|----------------------|


  Q    Q    Q    Q       Q    Q    Q    Q       Q    Q    Q    Q     
-------3---------3----|-------2---------2----|-------2---------2----|
-------2---------2----|-------3---------3----|-------3---------3----|
-------2---------2----|-------2---------2----|-------2---------2----|
------------2----L----|--0----L--------------|--0----L----0----L----|
--0----L--------------|------------0----L----|----------------------|
----------------------|----------------------|----------------------|


  Q    Q    Q    Q       Q    Q    Q    Q       E  H.           E   
-------3---------3----|-------3---------3----|--2------------------|
-------2---------2----|-------2---------2----|--3------------------|
-------2---------2----|-------2---------2----|--2------------------|
------------2----L----|------------2----L----|--0------------------|
--0----L--------------|--0----L--------------|---------------------|
----------------------|----------------------|---------------------|


  W                   Q    Q    Q    Q       Q    Q    Q    Q     
-------------------|-------3---------3----|-------3---------3----|
-------------------|-------2---------2----|-------2---------2----|
-------------------|-------2---------2----|-------2---------2----|
-------------------|------------2----L----|------------2----L----|
-------------------|--0----L--------------|--0----L--------------|
-------------------|----------------------|----------------------|


  Q    Q    Q    Q       Q    Q    Q    Q       Q    Q    Q    Q     
-------2---------2----|-------2--------------|-------3--------------|
-------3---------3----|-------3--------------|-------0--------------|
-------2---------2----|-------2--------------|-------0--------------|
--0----L--------------|--0----L--------------|----------------------|
------------0----L----|----------------------|------------0----2----|
----------------------|------------0----2----|--3----L--------------|


  Q    Q    Q    Q       Q    Q    Q    Q       Q    E  E  Q    E  E   
-------2--------------|-------3--------------|-------2--2-------2--2--|
-------3--------------|-------2--------------|-------3--3-------3--3--|
-------2--------------|-------2--------------|-------2--2-------2--2--|
--0----L--------------|----------------------|--0-------L-------------|
------------4----2----|--0----L----0----2----|-------------0-------L--|
----------------------|----------------------|------------------------|


  Q    Q    Q    Q       Q    Q    Q    Q       Q    Q    Q    Q     
-------3---------3----|-------3---------3----|-------2---------2----|
-------2---------2----|-------2---------2----|-------3---------3----|
-------2---------2----|-------2---------2----|-------2---------2----|
------------2----L----|------------2----L----|--0----L--------------|
--0----L--------------|--0----L--------------|------------0----L----|
----------------------|----------------------|----------------------|


  Q    Q    Q    Q       Q    Q    Q    Q       Q    Q    Q    Q     
-------2---------2----|-------3---------3----|-------3---------3----|
-------3---------3----|-------2---------2----|-------2---------2----|
-------2---------2----|-------2---------2----|-------2---------2----|
--0----L----0----L----|------------2----L----|------------2----L----|
----------------------|--0----L--------------|--0----L--------------|
----------------------|----------------------|----------------------|


  Q    Q    Q    Q       Q    Q    Q    Q       Q    Q    Q    Q     
-------2---------2----|-------2---------2----|-------3---------3----|
-------3---------3----|-------3---------3----|-------2---------2----|
-------2---------2----|-------2---------2----|-------2---------2----|
--0----L--------------|--0----L----0----L----|------------2----L----|
------------0----L----|----------------------|--0----L--------------|
----------------------|----------------------|----------------------|


  Q    Q    Q    Q       Q    Q    Q    Q       Q    Q    Q    Q     
-------3---------3----|-------2---------2----|-------2--------------|
-------2---------2----|-------3---------3----|-------3--------------|
-------2---------2----|-------2---------2----|-------2--------------|
------------2----L----|--0----L--------------|--0----L--------------|
--0----L--------------|------------0----L----|----------------------|
----------------------|----------------------|------------0----2----|


  Q    Q    Q    Q       Q    Q    Q    Q       Q    Q    Q    Q     
-------3--------------|-------2--------------|-------3--------------|
-------0--------------|-------3--------------|-------2--------------|
-------0--------------|-------2--------------|-------2--------------|
----------------------|--0----L--------------|----------------------|
------------0----2----|------------4----2----|--0----L----0----2----|
--3----L--------------|----------------------|----------------------|


  Q    E  E  Q    E  E     Q    Q    Q    Q       Q    Q    Q    Q     
-------2--2-------2--2--|-------3---------3----|-------3---------3----|
-------3--3-------3--3--|-------2---------2----|-------2---------2----|
-------2--2-------2--2--|-------2---------2----|-------2---------2----|
--0-------L-------------|------------2----L----|------------2----L----|
-------------0-------L--|--0----L--------------|--0----L--------------|
------------------------|----------------------|----------------------|


  Q    Q    Q    Q       Q    Q    Q    Q       Q    Q    Q    Q     
-------2---------2----|-------2---------2----|-------3---------3----|
-------3---------3----|-------3---------3----|-------2---------2----|
-------2---------2----|-------2---------2----|-------2---------2----|
--0----L--------------|--0----L----0----L----|------------2----L----|
------------0----L----|----------------------|--0----L--------------|
----------------------|----------------------|----------------------|


  Q    Q    Q    Q       E  H.           E     W                 
-------3---------3----|--2------------------|-------------------|
-------2---------2----|--3------------------|-------------------|
-------2---------2----|--2------------------|-------------------|
------------2----L----|--0------------------|-------------------|
--0----L--------------|---------------------|-------------------|
----------------------|---------------------|-------------------|


  Q    Q    Q    Q       Q    Q    Q    Q       Q    Q    Q    Q     
-------3---------3----|-------3---------3----|-------2---------2----|
-------2---------2----|-------2---------2----|-------3---------3----|
-------2---------2----|-------2---------2----|-------2---------2----|
------------2----L----|------------2----L----|--0----L--------------|
--0----L--------------|--0----L--------------|------------0----L----|
----------------------|----------------------|----------------------|


  Q    Q    Q    Q       Q    Q    Q    Q       Q    Q    Q    Q     
-------2--------------|-------3--------------|-------2--------------|
-------3--------------|-------0--------------|-------3--------------|
-------2--------------|-------0--------------|-------2--------------|
--0----L--------------|----------------------|--0----L--------------|
----------------------|------------0----2----|------------4----2----|
------------0----2----|--3----L--------------|----------------------|


  Q    Q    Q    Q       Q    E  E  Q    E  E     Q    Q    Q    Q     
-------3--------------|-------2--2-------2--2--|-------3---------3----|
-------2--------------|-------3--3-------3--3--|-------2---------2----|
-------2--------------|-------2--2-------2--2--|-------2---------2----|
----------------------|--0-------L-------------|------------2----L----|
--0----L----0----2----|-------------0-------L--|--0----L--------------|
----------------------|------------------------|----------------------|


  Q    Q    Q    Q       Q    Q    Q    Q       Q    Q    Q    Q     
-------3---------3----|-------2---------2----|-------2---------2----|
-------2---------2----|-------3---------3----|-------3---------3----|
-------2---------2----|-------2---------2----|-------2---------2----|
------------2----L----|--0----L--------------|--0----L----0----L----|
--0----L--------------|------------0----L----|----------------------|
----------------------|----------------------|----------------------|


  Q    Q    Q    Q       Q    Q    Q    Q       Q    Q    Q    Q     
-------3---------3----|-------3---------3----|-------2---------2----|
-------2---------2----|-------2---------2----|-------3---------3----|
-------2---------2----|-------2---------2----|-------2---------2----|
------------2----L----|------------2----L----|--0----L--------------|
--0----L--------------|--0----L--------------|------------0----L----|
----------------------|----------------------|----------------------|


  Q    Q    Q    Q       Q    Q    Q    Q       Q    Q    Q    Q     
-------2---------2----|-------3---------3----|-------3---------3----|
-------3---------3----|-------2---------2----|-------2---------2----|
-------2---------2----|-------2---------2----|-------2---------2----|
--0----L----0----L----|------------2----L----|------------2----L----|
----------------------|--0----L--------------|--0----L--------------|
----------------------|----------------------|----------------------|


  Q    Q    Q    Q       Q    Q    Q    Q       Q    Q    Q    Q     
-------2---------2----|-------2--------------|-------3--------------|
-------3---------3----|-------3--------------|-------0--------------|
-------2---------2----|-------2--------------|-------0--------------|
--0----L--------------|--0----L--------------|----------------------|
------------0----L----|----------------------|------------0----2----|
----------------------|------------0----2----|--3----L--------------|


  Q    Q    Q    Q       Q    Q    Q    Q       Q    E  E  Q    E  E   
-------2--------------|-------3--------------|-------2--2-------2--2--|
-------3--------------|-------2--------------|-------3--3-------3--3--|
-------2--------------|-------2--------------|-------2--2-------2--2--|
--0----L--------------|----------------------|--0-------L-------------|
------------4----2----|--0----L----0----2----|-------------0-------L--|
----------------------|----------------------|------------------------|


  Q    Q    Q    Q       Q    Q    Q    Q       Q    Q    Q    Q     
-------3---------3----|-------3---------3----|-------2---------2----|
-------2---------2----|-------2---------2----|-------3---------3----|
-------2---------2----|-------2---------2----|-------2---------2----|
------------2----L----|------------2----L----|--0----L--------------|
--0----L--------------|--0----L--------------|------------0----L----|
----------------------|----------------------|----------------------|


  Q    Q    Q    Q       Q    Q    Q    Q       Q    Q    Q    Q     
-------2---------2----|-------3---------3----|-------3---------3----|
-------3---------3----|-------2---------2----|-------2---------2----|
-------2---------2----|-------2---------2----|-------2---------2----|
--0----L----0----L----|------------2----L----|------------2----L----|
----------------------|--0----L--------------|--0----L--------------|
----------------------|----------------------|----------------------|


  E  H.           E     W                   Q    Q    Q    Q     
--2------------------|-------------------|-------3---------3----|
--3------------------|-------------------|-------2---------2----|
--2------------------|-------------------|-------2---------2----|
--0------------------|-------------------|------------2----L----|
---------------------|-------------------|--0----L--------------|
---------------------|-------------------|----------------------|


  Q    Q    Q    Q       Q    Q    Q    Q       Q    Q    Q    Q     
-------3---------3----|-------2---------2----|-------2--------------|
-------2---------2----|-------3---------3----|-------3--------------|
-------2---------2----|-------2---------2----|-------2--------------|
------------2----L----|--0----L--------------|--0----L--------------|
--0----L--------------|------------0----L----|----------------------|
----------------------|----------------------|------------0----2----|


  Q    Q    Q    Q       Q    Q    Q    Q       Q    Q    Q    Q     
-------3--------------|-------2--------------|-------3--------------|
-------0--------------|-------3--------------|-------2--------------|
-------0--------------|-------2--------------|-------2--------------|
----------------------|--0----L--------------|----------------------|
------------0----2----|------------4----2----|--0----L----0----2----|
--3----L--------------|----------------------|----------------------|


  E  E  E  E  E  Q.        W                   E  E  E  E  E  Q.      
------------------------|-------------------|-----3--3-----2---------|
------------------------|-------------------|-----2--2-----3---------|
------------------------|-------------------|-----2--2-----2---------|
--0-----------0---------|-------------------|--------------0---------|
--------0---------------|-------------------|------------------------|
------------------------|-------------------|------------------------|


  W                   E  E  E  E  H         
-------------------|-----3--3-----2--------||
-------------------|-----2--2-----3--------||
-------------------|-----2--2-----2--------||
-------------------|--------------0--------||
-------------------|-----------------------||
-------------------|-----------------------||


Duration Legend
---------------
W - whole
H - half
Q - quarter
E - 8th
S - 16th
T - 32nd
X - 64th
. - note dotted
|-n-|  - n-tuplets


Tablature Legend
----------------
L - tied note
x - dead note
g - grace note
(n) - ghost note
> - accentuded note
NH - natural harmonic
AH - artificial harmonic
TH - tapped harmonic
SH - semi harmonic
PH - pitch harmonic
h - hammer on
p - pull off
b - bend
br - bendRelease
pb - preBend
pbr - preBendRelease
brb - bendReleaseBend
\n/ - tremolo bar dip
\n - tremolo bar dive
-/n - tremolo bar Release up
/n\ - tremolo bar inverted dip
/n - tremolo bar return
-\n - tremolo bar Release down
S - shift slide
s - legato slide
/ -  slide into from below or out of upwards
\ -  slide into from above or out of downwards
~ - vibrato
W - wide vibrato
tr - trill
TP - tremolo picking
T - tapping
S - slap
P - pop
< - fade in
^ - brush up
v - brush down
Tap to rate this tab
 
# A B C D E F G H I J K L M N O P Q R S T U V W X Y Z