Song name
# A B C D E F G H I J K L M N O P Q R S T U V W X Y Z

Doctor Butcher - The Altar tab

This transcription probably isn't exact, but hopefully it'll get everybody
on the right idea of how to play this song.  I believe that Chris uses an
Octave pedal on the intro, and I don't have one..so the intro isn't exactly
how it's played..but the main notes are there.  If someone figures out a more
exact way, please email me and let me know.  The little fills in the song probably
aren't exact either..but they sound pretty good.

--------------0-----1------------|-------------0-----1------------|-----------|
--------------------------3------|-------------------------3------|-----------|
-------2----2-----2-----2-----2--|-------2---2-----2-----2-----2--|-------2---|
-----2-----2----2-----2-----2----|-----2---2-----2-----2-----2----|-----2-----|
-0\3----------------------------0|-\-3---------------------------0|-\-3-------|
---------------------------------|--------------------------------|-----------|
 If you have an octave pedal, try this and see how close it sounds.  It's

-----0-----1-----------0----------------------|------------0-----1------------|
-----------------3-----------1-----3-----0-1/3|------------------------3------|
---2-----2-----2-----2-----2-----2-----2------|------2---2-----2-----2-----2--|
-2-----2-----2-----2-----2-----2-----2--------|----2---2-----2-----2-----2----|
----------------------------------------------|0\3----------------------------|
----------------------------------------------|-------------------------------|
 hard to judge without having both notes

--|------------0-----1------------|-------------0-----1-----------0-----------|
--|------------------------3------|-------------------------3-----------1-----|
--|------2---2-----2-----2-----2--|-------2---2-----2-----2-----2-----2-------|
--|----2---2-----2-----2-----2----|-----2---2-----2-----2-----2-----2-----2---|
-0|-\3---------------------------0|-\-3---------------------------------------|
--|-------------------------------|-------------------------------------------|


---------------|--------------------|----------------|----------------|-------|
---3-----1-0---|--------------------|----------------|----------------|-------|
-2-----2-----2-|--------------------|-2--------------|----------------|-2-----|
-----2---------|-------3---------5--|-2--------------|----------------|-2-----|
---------------|--------------------|-0-0-0-0-0-0-0-0|-0-0-0-0-0-0-0-0|-0-0---|
---------------|-1-1-1---1-3-3-3---3|----------------|----------------|-------|
                                      Stain Glass lights the way        On

------------|----------------|----------------|----------------|--------------|
------------|----------------|----------------|----------------|--------------|
------------|----------------|-2--------------|----------------|--------------|
------------|----------------|-2--------------|----------------|-5------------|
-0-0-0-0-0-0|-0-0-0-0-0-0-0-0|-0-0-0-0-0-0-0-0|-0-0-0-0-0-0-0-0|-5------------|
------------|----------------|----------------|----------------|-3-3-3-3-3-3--|
 their knees the congregation prays.Collection plate is passed your way

----|----------------|----------------|----------------------------------|----|
----|----------------|----------------|----------------------------------|----|
----|----------------|-2--------------|-----------7-----10---10-10-10-9--|-2--|
----|----------------|-2--------------|-----7-------------------10-10-9--|-2--|
----|----------------|-0-0-0-0-0-0-0-0|-0\3---3\5---5\8----8----8--8--7/-|-0--|
-3-3|-3-3-3-3-3-3-3-3|----------------|----------------------------------|----|
                      Jesus looks down from the sky                        A

--------------|----------------|----------------|----------------|------------|
--------------|----------------|----------------|----------------|------------|
--------------|-2--------------|----------------|----------------|------------|
--------------|-2--------------|----------------|5---------------|5-----------|
-0-0-0-0-0-0-0|-0-0-0-0-0-0-0-0|-0-0-0-0-0-0-0-0|5---------------|5-----------|
--------------|----------------|----------------|3-3-3-3-3-3-3-3-|3-3-3-3-3-3-|
 tear fills...  In the fires of hell you're all gonna pay

------|------------------|----------------|-----------------------------------|
------|------------------|----------------|-----------------------------------|
------|------------------|----------------|-----------------------------------|
------|-5----------------|-5--------------|-----------------------------------|
------|-5----------------|-5--------------|-2-4-4-4-4-4-2-4-4-4-4-4-4---------|
-3-3-3|-3-3-3-3-3-3-3-3--|-3-3-3-3-3-3-3-3|-0-2-2-2-2-2-0-2-2-2-2-2-2---------|
        No..               NO.....

--------------------|------------------------|---------------------|----------|
--------------------|------------------------|---------------------|----------|
---------------2-4-5|------------------------|---------------------|----------|
---------------2-4-5|------------------------|-----4---------------|----------|
-4-4-4-4-4-4-4-0-2-3|-2-4-4-4-4-4-2-4-4-4-4-4|-2h3---3p2p0-3p2p0---|2-4-4-4---|
-2-2-2-2-2-2-2------|-0-2-2-2-2-2-0-2-2-2-2-2|-------------------0-|0-2-2-2---|


----------------|--------------------|------------------------|---------------|
----------------|--------------------|------------------------|---------------|
----------------|---------------2-4-5|------------------------|---------------|
----------------|---------------2-4-5|------------------------|-----4---------|
-4-4-2-4-4-4-4-4|-4-4-4-4-4-4-4-0-2-3|-2-4-4-4-4-4-2-4-4-4-4-4|-2h3---3p2p0---|
-2-2-0-2-2-2-2-2|-2-2-2-2-2-2-2------|-0-2-2-2-2-2-0-2-2-2-2-2|---------------|


--------|---------------------|------------|---------------------|------------|
--------|---------------------|------------|---------------------|------------|
--------|-----------2---------|-4-------5-4|-----------2---------|-4-------5--|
--------|-----------2---------|-4-------5-4|-----------2---------|-4-------5--|
-3p2p0--|-2-4-4-4-4-0-4-4-4-4-|-2-4-4-4-3-2|-2-4-4-4-4-0-4-4-4-4-|-2-4-4-4-3--|
-------0|-0-2-2-2-2---2-2-2-2-|---2-2-2----|-0-2-2-2-2---2-2-2-2-|---2-2-2----|
          In the rectory basement of sin     A meeting ready to being

--|--------------------|------------|--------------------|--------------------|
--|--------------------|------------|--------------------|--------------------|
-5|-----------2--------|-4-------5-4|-----------2--------|--------------------|
-5|-----------2--------|-4-------5-4|-----------2--------|-----4--------------|
-3|-2-4-4-4-4-0-4-4-4-4|-2-4-4-4-3-2|-2-4-4-4-4-0-4-4-4-4|-2h3---3p2p0-3p2p0--|
--|-0-2-2-2-2---2-2-2-2|---2-2-2----|-0-2-2-2-2---2-2-2-2|--------------------|
    Something in the eyes says        Holy father your telling me lies

--|------------------|-----------------------|--------------------------------|
--|------------------|-----------------------|--------------------------------|
--|-----9-1010109-9-7|-----9-10-10-109-9-9---|-------9-10--109---9-7----------|
--|------------------|-----------------------|-------------------------7-9----|
--|-----7/8-8-8\7-7\5|-----7/8--8--8\7-7-7\12|-------7/8---8\7---7\5---5/7----|
-0|-0-0--------------|-0-0-------------------|-0-0-0-----0-----0-----0--------|


------------------|-----------|-----------------|-----------|-----------------|
------------------|-----------|-----------------|-----------|-----------------|
------------------|-------5-4-|-----------------|-------5-4-|-----------------|
---9-7---7-5---5-4|-2-----5-4-|-2---------------|-2-----5-4-|-2---------------|
---7\5---5\3---3\2|-0-4---3-2-|-0-4-------------|-0-4---3-2-|-0-4-------------|
-0-----0-----0----|---2-------|---2-2-2-2-2-2-2-|---2-------|---2-2-2-2-2-2-2-|
                   Searching...tunnel of love    Touching...the lord above

-----------------------------------------------------|------------------------|
-----------------------------------------------------|------------------------|
--9-9-------9-9-------12-12-------11-11-------------9|-4-4-------7-7----------|
--9-9-------9-9-------12-12-------11-11-------------9|-4-4-------7-7----------|
--7-7-------7-7-------10-10-------9--9-------9h10p9-7|-2-2-2-2-2-5-5-5-5-5----|
------0-0-0-----0-0-0-------0-0-0------0-0-0---------|------------------------|
 Step Up - Up to the altar

------------------------------------------------------|-----------------------|
------------------------------------------------------|-----------------------|
--9-9-------9-9-------12-12-------14-14--------------9|-----------------------|
--9-9-------9-9-------12-12-------14-14--------------9|-4-4-4----4-4-4-2------|
--7-7-------7-7-------10-10-------12-12-------9h10p9-7|\2-2-2-1--2-2-2-0------|
------0-0-0-----0-0-0-------0-0-0-------0-0-0---------|-----------------------|
  Kneel Down - Down on your knees and pray

-----------------------------------------------------|------------------------|
-----------------------------------------------------|------------------------|
--9-9-------9-9-------12-12-------11-11-------------9|-4-4-------7-7----------|
--9-9-------9-9-------12-12-------11-11-------------9|-4-4-------7-7----------|
--7-7-------7-7-------10-10-------9--9-------9h10p9-7|\2-2-2-2-2-5-5-5-5-5----|
------0-0-0-----0-0-0-------0-0-0------0-0-0---------|------------------------|
  Step Up - Up to the altar

------------------------------------------------------|-----------------------|
------------------------------------------------------|-----------------------|
--9-9-------9-9-------12-12-------14-14--------------9|-----------------------|
--9-9-------9-9-------12-12-------14-14--------------9|-4-4-4----4-4-4--------|
--7-7-------7-7-------10-10-------12-12-------9h10p9-7|\2-2-2-1--2-2-2-4------|
------0-0-0-----0-0-0-------0-0-0-------0-0-0--------------------------2------|
 A priest - is playing his organ again

------|------------------|----------------|-------------------|---------------|
------|------------------|----------------|-------------------|---------------|
------|------------------|----------------|----------2--------|---------------|
--5---|-4-4-4-4-4-4-4-4-4|----------------|----------2--------|---------------|
--5---|-2-2-2-2-2-2-2-2-2|-2-2-2-2-2-2-2-2|2-4-4-4-4-0-4-4-4-4|-4-4-4-4-4-4---|
--3---|------------------|----------------|0-2-2-2-2---2-2-2-2|-2-2-2-2-2-2---|
                           (flanger)         (Guitar Solo Rhythm)

-------|--------------------|--------------------|--------------------|-------|
-------|--------------------|--------------------|--------------------|-------|
-2--4-5|-----------2--------|--------------------|-----------2--------|-5-4---|
-2--4-5|-----------2--------|-----4--------------|-----------2--------|-5-4---|
-0--2-3|-2-4-4-4-4-0-4-4-4-4|-2h3---3p2p0-3p2p0--|-2-4-4-4-4-0-4-4-4-4|-3-2---|
-------|-0-2-2-2-2---2-2-2-2|-------------------0|-0-2-2-2-2---2-2-2-2|-------|


--------|--------------------|--------------------|--------------------|------|
--------|--------------------|--------------------|--------------------|------|
---2-4-5|--------------------|--------------------|----------2---------|-4----|
---2-4-5|--------------------|-----4--------------|----------2---------|-4----|
-2-0-2-3|-2-4-4-4-4-2-4-4-4-4|-2h3---3p2p0-3p2p0--|2-4-4-4-4-0-4-4-4-4-|-2-4--|
-0------|-0-2-2-2-2-0-2-2-2-2|-------------------0|0-2-2-2-2---2-2-2-2-|---2--|
                                                   Sacrifical bishop cracks

-----------|-------------------|--------------|-------------------|-----------|
-----------|-------------------|--------------|-------------------|-----------|
-------5-4-|----------2--------|-4---------5--|----------2--------|-4---------|
-------5-4-|----------2--------|-4---------5--|----------2--------|-4---------|
-4-4-4-3-2-|2-4-4-4-4-0-4-4-4-4|-2-4-4-4-4-3--|2-4-4-4-4-0-4-4-4-4|-2-4-4-4-4-|
-2-2-2-----|0-2-2-2-2---2-2-2-2|---2-2-2-2----|0-2-2-2-2---2-2-2-2|---2-2-2-2-|
 the sky    Upon the altar a virgin lies       No hail mary gonna save you

-----|--------------------|--------------------|-------------------|----------|
-----|--------------------|--------------------|-------------------|----------|
--5-4|-----------2--------|--------------------|-----9-1010109-9-7-|----------|
--5-4|-----------2--------|-----4--------------|-------------------|----------|
--3-2|-2-4-4-4-4-0-4-4-4-4|-2h3---3p2p0-3p2p0--|-----7/8-8-8\7-7\5-|----------|
-----|-0-2-2-2-2---2-2-2-2|-------------------0|-0-0---------------|0-0-0-----|
 now

-------------------|---------------------------------------------|------------|
-------------------|---------------------------------------------|------------|
-9-10-10-109-9-9---|------9-10--109---9-7------------------------|------------|
-------------------|------------------------7-9---9-7---7-5---5-4|2-----------|
-7/8--8--8\7-7-7\12|------7/8---8\7---7\5---5/7---7\5---5\3---3\2|0-4---------|
-------------------|0-0-0-----0-----0-----0-----0-----0-----0----|--2---------|
                                                                   Looking

--------|-------------------|-------|--------|--------------------------------|
--------|-------------------|-------|--------|--------------------------------|
--5---4-|-------------------|-------|-5---4--|--------------------------------|
--5---4-|-2-----------------|-2-----|-5---4--|-2------------------------------|
--3---2-|-0-4--------------5|-0--4--|-3---2--|-0-4----------------------------|
--------|---2--2-2-2-2-2-2-3|----2--|--------|---2-2-2-2-2-2-2----------------|
 for choir girls and boys     Hoping he just wants a brand new toy

-----------------------------------------------------|------------------------|
-----------------------------------------------------|------------------------|
-9-9-------9-9-------12-12-------11-11--------------9|-4-4-------7-7----------|
-9-9-------9-9-------12-12-------11-11--------------9|-4-4-------7-7----------|
-7-7-------7-7-------10-10-------9--9--------9h10p9-7|\2-2-2-2-2-5-5-5-5-5----|
-----0-0-0-----0-0-0-------0-0-0-------0-0-0---------|------------------------|
  Step Up - Up to the altar

------------------------------------------------------|-----------------------|
------------------------------------------------------|-----------------------|
-9-9-------9-9-------12-12-------14--14--------------9|-----------------------|
-9-9-------9-9-------12-12-------14--14--------------9|-4-4-4----4-4-4--------|
-7-7-------7-7-------10-10-------12--12-------9h10p9-7|\2-2-2-1--2-2-2-4------|
-----0-0-0-----0-0-0-------0-0-0--------0-0-0---------|----------------2------|
 Kneel Down - down on your knees and pray

------------------------------------------------------|-----------------------|
------------------------------------------------------|-----------------------|
-9-9-------9-9-------12-12-------11--11--------------9|-4-4-------7-7---------|
-9-9-------9-9-------12-12-------11--11--------------9|-4-4-------7-7---------|
-7-7-------7-7-------10-10-------9---9--------9h10p9-7|\2-2-2-2-2-5-5-5-5-5---|
-----0-0-0-----0-0-0-------0-0-0--------0-0-0---------|-----------------------|
  Step Up  - Up to the altar

-----------------------------------------------------|------------------------|
-----------------------------------------------------|------------------------|
-9-9-------9-9-------12-12-------14-14--------------9|------------------------|
-9-9-------9-9-------12-12-------14-14--------------9|-4-4-4----4-4-4---------|
-7-7-------7-7-------10-10-------12-12-------9h10p9-7|\2-2-2-1--2-2-2-4-------|
-----0-0-0-----0-0-0-------0-0-0-------0-0-0---------|----------------2-------|
  A Priest - Is playing his organ again

-------|----------------|----------------|----|------------|------------------|
-------|----------------|----------------|----|------------|------------------|
-------|----------------|----------------|2---|-4---4-5-4-7|2---2---2-2-------|
-5-----|-4-4-4-4-4-4-4-4|----------------|2---|-4---4-5-4-7|2---2---2-2-------|
-5-----|-2-2-2-2-2-2-2-2|-2-2-2-2-2-2-2-2|0---|-2---2-3-2-5|0---0---0-0-------|
-3-----|----------------|----------------|----|------------|------3-----------|
                          (flanger)

---|-------------|------------|-------------------------|---------------------|
---|-------------|------------|-------------------------|---------------------|
-2-|-4---4-5-4-7-|-2---2---2-2|------------2------------|---------------------|
-2-|-4---4-5-4-7-|-2---2---2-2|------------2------------|---------------------|
-0-|-2---2-3-2-5-|-0---0---0-0|2-4-4-4-4-4-0-4-4-4-4-4-4|-3-2-0--0-2-3--------|
---|-------------|-------3----|0-2-2-2-2-2---2-2-2-2-2-2|---------------------|
                                (guitar solo)

---------------------------|---------------------|----------------------------|
---------------------------|---------------------|----------------------------|
--------------2------------|---------------------|-------------2--------------|
--------------2------------|-----4---------------|-------------2--------------|
--2-4-4-4-4-4-0-4-4-4-4-4-4|-2h3---3p2p0--3p2p0--|-2-4-4-4-4-4-0-4-4-4-4-4-4--|
--0-2-2-2-2-2---2-2-2-2-2-2|--------------------0|-0-2-2-2-2-2---2-2-2-2-2-2--|


-------------|--------------------------|---------------------|---------------|
-------------|--------------------------|---------------------|---------------|
-------------|-------------2------------|---------------------|---------------|
-------------|-------------2------------|-----4---------------|---------------|
-3-2-0--0-2-3|-2-4-4-4-4-4-0-4-4-4-4-4-4|-2h3---3p2p0--3p2p0--|-2-4-4-4-4-4---|
-------------|-0-2-2-2-2-2---2-2-2-2-2-2|--------------------0|-0-2-2-2-2-2---|


--------------|------------|--------------------------|-----------------------|
--------------|------------|--------------------------|-----------------------|
-2------------|------------|-------------2------------|-----------------------|
-2------------|------------|-------------2------------|-----4-----------------|
-0-4-4-4-4-4-4|-3-2-0-0-2-3|-2-4-4-4-4-4-0-4-4-4-4-4-4|-2h3---3p2p0--3p2p0----|
---2-2-2-2-2-2|------------|-0-2-2-2-2-2---2-2-2-2-2-2|--------------------0--|


---------------------------|------------|--------------------------|----------|
---------------------------|------------|--------------------------|----------|
-------------2-------------|------------|-------------2------------|----------|
-------------2-------------|------------|-------------2------------|-----4----|
-2-4-4-4-4-4-0-4-4-4-4-4-4-|-3-2-0-0-2-3|-2-4-4-4-4-4-0-4-4-4-4-4-4|-2h3------|
-0-2-2-2-2-2---2-2-2-2-2-2-|------------|-0-2-2-2-2-2---2-2-2-2-2-2|----------|


--------------|-----|----------------|----------------|-----------------------|
--------------|-----|----------------|----------------|-----------------------|
--------------|-----|----------------|----------------|-9-9-------9-9---------|
--------------|-5---|-4-4-4-4-4-4-4-4|----------------|-9-9-------9-9---------|
-3p2p0-3p2p0--|-5---|-2-2-2-2-2-2-2-2|-2-2-2-2-2-2-2-2|-7-7-------7-7---------|
-------------0|-3---|----------------|----------------|-----0-0-0-----0-0-0---|
                                      (flanger)         Step Up - Up to the

---------------------------------|---------------------|----------------------|
---------------------------------|---------------------|----------------------|
-12-12-------11-11--------------9|--4-4-------7-7------|-9-9-------9-9--------|
-12-12-------11-11--------------9|--4-4-------7-7------|-9-9-------9-9--------|
-10-10-------9--9--------9h10p9-7|\-2-2-2-2-2-5-5-5-5-5|-7-7-------7-7--------|
-------0-0-0-------0-0-0---------|---------------------|-----0-0-0-----0-0-0--|
 altar                                                   Kneel Down - Down

---------------------------------|------------------|-------------------------|
---------------------------------|------------------|-------------------------|
-12-12-------14-14--------------9|--4---------------|-9-9-------9-9-----------|
-12-12-------14-14--------------9|--4-4-4----4-4-4--|-9-9-------9-9-----------|
-10-10-------12-12-------9h10p9-7|\-2-2-2-1--2-2-2-0|-7-7-------7-7-----------|
-------0-0-0-------0-0-0---------|------------------|-----0-0-0-----0-0-0-----|
 on your knees and pray                              Step Up - Up to the

---------------------------------|---------------------|----------------------|
---------------------------------|---------------------|----------------------|
-12-12-------11-11--------------9|--4-4-------7-7-7-4-7|9-9-------9-9---------|
-12-12-------11-11--------------9|--4-4-------7-7-7-4-7|9-9-------9-9---------|
-10-10-------9--9--------9h10p9-7|\-2-2-2-2-2-5-5-5-2-5|7-7-------7-7---------|
-------0-0-0-------0-0-0---------|---------------------|----0-0-0-----0-0-0---|
 altar                                                  A priest - is

---------------------------------|-----------------|-----|--------------------|
---------------------------------|-----------------|-----|--------------------|
-12-12-------14-14--------------9|-----------------|-----|--------------------|
-12-12-------14-14--------------9|-4-4-4----4-4-4--|-5---|-4-4-4-4-4-4-4-4----|
-10-10-------12-12-------9h10p9-7|\2-2-2-1--2-2-2-0|-5---|-2-2-2-2-2-2-2-2----|
-------0-0-0-------0-0-0---------|-----------------|-3---|--------------------|
 playing his organ again

-----------------|----------|---------------------|--------|------------------|
-----------------|----------|---------------------|--------|------------------|
-----------------|-------5-4|---------------------|-----5-4|------------------|
-----------------|-2-----5-4|-2-------------------|2----5-4|-2----------------|
-2-2-2-2-2-2-2-2-|-0-4---3-2|-0--4--------------5-|0-4--3-2|-0-4-----------5--|
-----------------|---2------|----2--2-2-2-2-2-2-3-|--2-----|---2-2-2-2-2-2-3--|
 (flanger)

--------------------------|------------------------|--------------------------|
--------------------------|------------------------|--------------------------|
--------------------------|------------------------|-5-4---4-2----------------|
-------------5-4----------|-2-4--------------------|-5-4---4-2--4--4----------|
-2-4-4-4-4-4-3-2-4-4-4-4-4|-0-2-4-4-4-4-4-4-4-4-4-5|-3-2---2-0--4--4----------|
-0-2-2-2-2-2-----2-2-2-2-2|-----2-2-2-2-2-2-2-2-2-3|------------2--2----------|
 (PLAY A FEW TIMES UNDER THE SOLO)

http://en.wikipedia.org/wiki/Doctor_Butcher
Tap to rate this tab
 
# A B C D E F G H I J K L M N O P Q R S T U V W X Y Z