Song name
# A B C D E F G H I J K L M N O P Q R S T U V W X Y Z

Doe Maar - Sinds 1 Dag Of 2 32 Jaar tab

I wanted to find out how to play this song and when I did I decided to put it on here.

The intro is basically this:
E:-----------------------------------|
B:-----------------------------------|
G:-----------------------------------|
D:-----------------------------------|
A:--7-7-7-7-7-7-7-7-7-7-7-7-7-7-7-7--| (heavily palm muted)
E:--5-5-5-5-5-5-5-5-5-5-5-5-5-5-5-5--| (heavily palm muted)

E:-----------------------------------|
B:-----------------------------------|
G:-----------------------------------|
D:--7-7-7-7-7-7-7-7-7-7-7-7-7-7-7-7--| (heavily palm muted)
A:--7-7-7-7-7-7-7-7-7-7-7-7-7-7-7-7--| (heavily palm muted)
E:--5-5-5-5-5-5-5-5-5-5-5-5-5-5-5-5--| (heavily palm muted)

repeate... (sinds n dag of twee..)

Pre-Chorus
't is wel een beetje raar....
Now there are to guitar parts at the same time: there is one fast, palm muted part 
and a chord part:
Part A (fast), in 16th notes
E:----------------------------------------------------------------------------------|
B:----------------------------------------------------------------------------------|
G:----------------------------------------------------------------------------------|
D:----------------------------------------------------------------------------------|
A:----------------------------------------------------------------------------------|
E:--5555555544444444333333332222222211111111111111111111111111111111333333333333333-|

Part B (chords) just play the barre-chords every half of a note-change.
E:------5~------4~------3~------2~------1~------1~------1~------1~------3~------3~------3~------3~
B:------5~------4~------3~------2~------1~------1~------1~------1~------3~------3~------3~------3~
G:------6~------5~------4~------3~------2~------2~------2~------2~------4~------4~------4~------4~
D:------7~------6~------5~------4~------3~------3~------3~------3~------5~------5~------5~------5~
A:------7~------6~------5~------4~------3~------3~------3~------3~------5~------5~------5~------5~
E:------5~------4~------3~------2~------1~------1~------1~------1~------3~------3~------3~------3~

CHorus (ze is ze is van mij)
I'm not sure about this, I think it's just a regular reggae/ska pattern
E:---12---12---12---12---10---10---10---10---------|
B:---12---12---12---12---10---10---10---10---------|
G:---13---13---13---13---11---11---11---11---------|
D:---14---14---14---14---12---12---12---12---------|
A:---14---14---14---14---12---12---12---12---------|
E:---12---12---12---12---10---10---10---10 repeat--| 4x

Interlude: (this is on piano, but I just like to play in on guitar)
E:----------------|
B:----------------|
G:----------------|
D:--2--2--4--6--7-|
A:--2--2--4--6--7-|
E:--0--0--2--4--5-|

Then just repeat the intro, with a little addition:

E:------------------------------|
B:------------------------------|
G:-----14-14~-----14-14~--------|
D:------------------------------|
A:-----12-12~-----12-12~--------|
E:------------------------------|

Then just repeat the pre-chorus, the chorus, and the interlude. then comes the solo with 
overdrive:
E:------------------------------------------------------------------|
B:------------------------------------------------------------------|
G:-------------------------------------------------5--4-------------|
D:---------------------------------------5---------------5--3>5~----|
A:----------7-------------------------------8---5-------------------|
E:-----7--8----8~-----(repeat 4x)-----------------------------------|

repeat chorus, end in D chord.

tabbed by vagelier
Tap to rate this tab
 
# A B C D E F G H I J K L M N O P Q R S T U V W X Y Z