Song name
# A B C D E F G H I J K L M N O P Q R S T U V W X Y Z

Doe Maar - De Vrolijke Padvinder tab

Tabbed by: Clint Wind
Email: blah_blahblah_blah@hotmail.com

Tuning: Standard
volgens mij is dit goed, het klinkt inieder geval wel goed :) 
als je vragen heb ofzo, e-mail maar.



e|-----------------------------------------------------------------|
B|-----------------------------------------------------------------|
G|-----------------------------------------------------------------|
D|-----------------------------------------------------------------|
A|-7--7-10-9--7--------7--7-10-9--7--------------------------------|
E|---------------7-------------------------------------------------|


e|-----------------------------------------------------------------|
B|-----------------------------------------------------------------|
G|-----------------------------------------------------------------|
D|---------9-------------------------------------------------------|
A|-7--7-10---10-7--------7--7-10-9--7------------------------------|
E|-----------------7-----------------------------------------------|

Tap to rate this tab
 
# A B C D E F G H I J K L M N O P Q R S T U V W X Y Z