Song name
# A B C D E F G H I J K L M N O P Q R S T U V W X Y Z

Doe Maar - Heroine chords

Highlighted       Show chord diagrams
Doe Maar – Heroïne

INTRO

RIFF 1
   D   C    G
e|----------------3----------|
B|----------3-5-6------------|\ 
G|---------------------------| \
D|---------------------------|  5x
A|---------------------------| /
E|---------------------------|/

RIFF 2
   D   C    G
e|--------------------------------|
B|--------------------------------| Tussen haakjes alleen
G|----------7-5---5-4---(4)(2)----| tweede keer intro spelen
D|--------------7-----5-------(0)-|
A|--------------------------------|
E|--------------------------------|

RIFF 1 (1x)
RIFF 2
G

VERSE 1
D            C         G
Mijn god wat ben je veranderd
D         C          G
Je bent dezelfde niet
D           C              G
Je had zo'n mooie mond met tanden
     D                C
Daar is niks meer van over
Bb     Ab
D          C          G
En dan die blik in je ogen
   D             C        G
Je kijkt maar je ziet niet
D         C           G
Ik heb je altijd gemogen
   D             C
Ze vinden je een klootzak
Bb     Ab

CHORUS

De bas speelt dit tijdens het refrein
D|---------|
G|---------|
A|---2-4-2-|
E|-4-------|

Abm
Heroïne godverdomme
Heroïne godverdomme
Heroïne is een vloek
Heroïne godverdomme
Heroïne godverdomme
Wie verdient dat

RIFF 1 (3x)
RIFF 2

VERSE 2
D          C              G
Als jij alleen was op de wereld
D        C            G
Nou dan kon ik er nog bij
D            C             G
Maar heb het lef eens te beweren
       D               C
Dat er niemand naar je omkijkt
Bb      Ab
D      C            G
Je belazert al je vrienden
D           C         G
Verneukt je eigen lief
D           C                G
Besteelt je moeder voor een tientje
D               C
Als jij maar je shot krijgt
Bb      Ab

Abm
Heroïne godverdomme
Heroïne godverdomme
Heroïne is een vloek
Heroïne godverdomme
Heroïne godverdomme
Wie verdient dat

BRIDGE

De bas speelt het volgende. Niet echt akkoorden hier.
G|-----------------------------|
D|-----------------------------| 4x
A|-5-5-3-3-------2-5-3-3-------|
E|-----------------------------|
Ah ah ah ah.     Ah ah ah ah.

GUITAR SOLO
e|-------8--7--------6--(6/\)5--|\
B|-6--5-------------------------| 2x, tussen haakjes 
G|-------------7--8-------------| alleen tweede keer
D|------------------------------|/
A|------------------------------|
E|------------------------------|

VERSE 3
D          C           G
Je zegt je zit in de zorgen
D             C        G
Je bent een zielenpiet
D               C       G
En elke dag zeg jij weer morgen
D               C
Stop ik met die rotzooi
Bb       Ab
D       C            G
Nou het is je eigen leven
D           C           G
Je moet het zelf maar zien
D        C               G
Maar ik zou er wat voor geven
    D               C
Als ik je weer eens lachen zag
Bb       Ab

CHORUS
Abm
Heroïne godverdomme
Heroïne godverdomme
Heroïne is een vloek
Heroïne godverdomme
Heroïne godverdom 
   wie Here God verdient dat
e|-----7-4---------7-----4---|
B|-4--------7---4------------|
G|---------------------------|
D|---------------------------|
A|---------------------------|
E|---------------------------|
Tap to rate this tab
 
# A B C D E F G H I J K L M N O P Q R S T U V W X Y Z