Song name
# A B C D E F G H I J K L M N O P Q R S T U V W X Y Z

Doe Maar - Macho tab

Beat: 1:30 - 1:50 & 02:24 - 3:15
e|--------------------------------------------------------|
B|--------------------------------------------------------|
G|--------------------------------------------------------|
D|-----0-2-----0-2-----0-2-----0-2------------------------|
A|--------------------------------------------------------|
E|-1-------3-------111-----3------------------------------|

in the song they sing oh oh, at the second 0-2 you can also put in:
e|--------------------------------------------------------|
B|--------------------------------------------------------|
G|--------------------------------------------------------|
D|-----0-2-----2-------0-2-----0-2------------------------|
A|---------------3----------------------------------------|
E|-1-------3-------111-----3------------------------------|
but that's my own interpertation.

Solo Time!: 1:51 - 2:04
 |   V   |    | V |                     | V |
e|---------------------------------------3~1-|
B|------------------------3------------------|
G|----------------------3---5------2-3-------|
D|--------------------5------55~-5-----5-----|
A|-0/5~\3------------------------------------|
E|---------1~--/6~--3------------------------|

/ & \ = slide
~ = let it ring
| V | = Vibrato part
Tap to rate this tab
# A B C D E F G H I J K L M N O P Q R S T U V W X Y Z