Song name
# A B C D E F G H I J K L M N O P Q R S T U V W X Y Z

Does It Offend You Yeah - Attack Of The 60ft Lesbian Octopus tab

I tabbed this by ear, so if there's any errors.. oh well I'm only human.
This is pretty simple to play, just need to get alternate picking down.
PS: this song rawks.

Standard tuning

|-----------------------------------|
|-----------------------------------|
|-----------------------------------|  x8
|-----------------------------------|
|-----------------------------------|
|-0-0-6-0-0-0-7-0-0-0-8-0-0-0-9-0---|

|--------------------------|
|--------------------------|
|--------4-4---3-3---2-2---|  x4
|--2-2---4-4---3-3---2-2---|
|--2-2---2-2---1-1---0-0---|
|--0-0---------------------|

|-----------------------------------|
|-----------------------------------|
|-----------------------------------|  x8
|-----------------------------------|
|-----------------------------------|
|-0-0-6-0-0-0-7-0-0-0-8-0-0-0-9-0---|

|--------------------------|
|--------------------------|
|--------4-4---3-3---2-2---|  x8
|--2-2---4-4---3-3---2-2---|
|--2-2---2-2---1-1---0-0---|
|--0-0---------------------|

then

|------|
|------|
|------|
|--2~--
|--2~--
|--0~--

at the very end theres all sorts of stuff going on so i'm not going try and tab that.  
anything, just do your own thing.  play along with the song and you'll get the rythm.
Tap to rate this tab
 
# A B C D E F G H I J K L M N O P Q R S T U V W X Y Z