Song name
# A B C D E F G H I J K L M N O P Q R S T U V W X Y Z

Does It Offend You Yeah - Battle Royale tab

Help us improve GuitareTab! Take a short survey!
The guitarist doesnt play it live i dont think ive serched for it loads on you tube but 
think either its played on there keybaord as well as the guitar coz if u listen closely 
can hear two separate instruments playing in the solo,
it makes the solo sound more complicated but reeli its just the synth playing other notes.

e|------10h12p10---7---10---9---5---3-------|
B|----8-------------------------------------|
G|9-9---------------------------------------|
D|------------------------------------------|
A|------------------------------------------|
E|------------------------------------------|


e|-----10h12p10---7---10---12---14---12-----|
B|--8---------------------------------------|
G|-9----------------------------------------|
D|------------------------------------------|
A|------------------------------------------|
E|------------------------------------------|

i didnt tab the other part coz its to hard
Related for Battle Royale tab