Song name
# A B C D E F G H I J K L M N O P Q R S T U V W X Y Z

Does It Offend You Yeah - Battle Royale tab

~~~~~~~~~~~~~~~~~~~~~~~~
This is the part at 1:48
~~~~~~~~~~~~~~~~~~~~~~~~

e|--------|-----12-10----10--9-----------|
b|-----8--|-12--------12---------10---8--|
g|-9------|------------------------------|
a|--------|------------------------------|
e|--------|------------------------------|

e|--------|-----12-10----10--12--14---12-|
b|-----8--|-12--------12-----------------|
g|-9------|------------------------------|
a|--------|------------------------------|
e|--------|------------------------------|
Tap to rate this tab
# A B C D E F G H I J K L M N O P Q R S T U V W X Y Z