Song name
# A B C D E F G H I J K L M N O P Q R S T U V W X Y Z

Dog Ears - Mrs Winchester tab

Verse:

e|-----------------------|-------------------------|-------------------------|
B|-----5-------5---------|------5-------5----------|-------5------5----------|
G|---4-------4-------4---|----4-------4-------4----|-----4------4------4-----|
D|-2---------------2-----|--4---------------4------|----------2------2-------|
A|-----------------------|---------2---------------|---0---------------------|
E|---------0-------------|-------------------------|-------------------------|

e|-----------------------|
B|-------5-----5---------|
G|----4------4------4----|
D|---------2-------------|
A|--0-------------0------|
E|-----------------------|

The humming part:

e|-----------------------|------------------------|--------------------------|
B|------5------5---------|--------5-----5---------|------5------5------------|
G|----4------4------4----|------4-----4-------4---|----4------4-------4------|
D|---------2-------------|------------------2-----|---------2-------2--------|
A|--4-------------4------|---2------2-------------|--0-----------------------|
E|-----------------------|------------------------|--------------------------|

e|-----------------------|
B|--------5-------5------|
G|-----4--------4-----4--|
D|-----------2-----------|
A|--0---------------0----|
E|-----------------------|

End: Strum this chord

e|--0--------------------|
B|--5--------------------|
G|--4--------------------|
D|--2--------------------|
A|--0--------------------|
E|-----------------------|

http://dogears.org/
Tap to rate this tab
# A B C D E F G H I J K L M N O P Q R S T U V W X Y Z