Song name
# A B C D E F G H I J K L M N O P Q R S T U V W X Y Z

Dog Eat Dog - Strip Song tab

Dog Eat Dog - Strip Song

INTRO & VERSES:
                            
e|-----------------------|--------------------------|
b|-----------------------|--------------------------|
g|-----------------5-----|--------------------------|
d|4-4-*-4~-4-4-4\7-5-----|-4-4-*-4-7-7-7-7\6-2------|  
a|4-4-*-4~-4-4-4\7-3-----|-4-4-*-4-7-7-7-7\6-2------|
E|2-2-*-2~-2-2-2\5-------|-2-2-*-2-5-5-5-5\4-0------|


FILL1:
e|--------------------------|
b|--------------------------|
g|----9~~-------------------|
d|2~~-9~~-------------------|
a|2~~-7~~-------------------|
E|0~~-----------------------|

FILL2:

e|---------------------------|
b|---------------------------|
g|----11~~-9~----------------|
d|2~~-11~~-9~----------------|
a|2~~-9~~--7~----------------|
E|0~~------------------------|


CHORUS

e|----------------------------|-------------------------------|
b|----------------------------|-------------------------------|
g|--------7-------------------|--------7-------\7-\8-\9-------|
d|-\9-8-9---9-8-9-8-9-8-------|-\9-8-9---9-8-9----------------|
a|----------------------\7~---|-------------------------------|
E|----------------------------|-------------------------------|



e|-----------10------------------------|-----------10----------\10-\-11\-12-|
b|-\12-11-12----12-11-12-11-12-11------|-\12-11-12----12-11-12--------------|
g|--------------------------------\10~-|------------------------------------|
d|-------------------------------------|------------------------------------|
a|-------------------------------------|------------------------------------|
E|-------------------------------------|------------------------------------|


all you need is listen to the song
Tap to rate this tab
# A B C D E F G H I J K L M N O P Q R S T U V W X Y Z