Guitaretab - guitar tabs
Song name
# A B C D E F G H I J K L M N O P Q R S T U V W X Y Z

Dog Eat Dog - If These Are Good Times tab

If These Are Good Times -- Dog Eat Dog

DATE: 24/01/95

TABBED BY : 	RICHARD COOPER
            	Kingston University
            	England
            	(k943707@king.ac.uk)


CORRECTION BY :	Patrick Jean
               	TH Darmstadt
               	Germany
	       	netangel@rbg.informatik.th-darmstadt.de

--------------------------------------------------------

  INTRO:
e:--------------------|
B:--------------------|
G:--------------------|
D:-6-6-xxxx--6-6-xxxx-|
A:-6-6-xxxx--6-6-xxxx-|
E:-4-4-xxxx--4-4-xxxx-|

  CHORUS:
e:-------|-------------------------|
B:-------|-------------------------|
G:---7-9-|-------------------------|
D:-9-7-9-|-9-7--6-6-xxxx--6-6-xxxx-|
A:-9-5-7-|-9-7--6-6-xxxx--6-6-xxxx-|
E:-7-----|-7-5--4-4-xxxx--4-4-xxxx-|

  VERSE(A):
e:----------|----------|
B:----------|----------|
G:----------|----------|
D:-4--7-4-3-|-4--7-4-3-|
A:-4--7-4-3-|-4--7-4-3-|
E:-2--5-2-1-|-2--5-2-1-|
[ Tab from: http://www.guitaretab.com/d/dog-eat-dog/37855.html ]
  VERSE(B):
e:--------------|--------------|
B:--------------|--------------|
G:--------------|--------------|
D:-4-4-4--7-4-3-|-4-4-4--7-4-3-|
A:-4-4-4--7-4-3-|-4-4-4--7-4-3-|
E:-2-2-2--5-2-1-|-2-2-2--5-2-1-|

  FILL(A):
e:-----------------|
B:-----------------|
G:-----------------|
D:-4-4--xxxx-4-4-3-|
A:-4-4--xxxx-4-4-3-|
E:-2-2--xxxx-2-2-1-|

  FILL(B):
e:---------------|
B:---------------|
G:---------------|
D:-4-4--xxxx-5-5-|
A:-4-4--xxxx-5-5-|
E:-2-2--xxxx-3-3-|

  FILL(C):
e:------------|
B:------------|
G:------------|
D:-4-4-xxxx-5-|
A:-4-4-xxxx-5-|
E:-2-2-xxxx-3-|

  OUTRO:
e:----------------|
B:----------------|
G:----------------|
D:-9--9-9-9-9-9/3-|
A:-9--9-9-9-9-9/3-|
E:-7--7-7-7-7-7/1-|

SONG STRUCTURE:
---------------
INTRO    
CHORUS   x2
VERSE(A) x2
VERSE(B) x2
CHORUS   x2
VERSE(A) x3
VERSE(B)
CHORUS   x2
FILL(A)  x3
FILL(B)  x2
FILL(A)  x3
FILL(B)
FILL(C)
CHORUS   x3
OUTRO
Related for If These Are Good Times tab
Advertisement will be closed in 10 seconds