Song name
# A B C D E F G H I J K L M N O P Q R S T U V W X Y Z

Dog Eat Dog - Hi-lo tab

INTRO IS SAME LIKE VERSE:
e|-----------------------------------------------|
B|-----------------------------------------------|
G|-----------------------------------------------|
D|6-6-6--5-5--5-5-5--5-5--5-5-5--5-5--5-5-5--5-5-|
A|6-6-6--5-5--5-5-5--5-5--5-5-5--5-5--5-5-5--5-5-|
E|4-4-4--3-3--3-3-3--3-3--3-3-3--3-3--3-3-3--3-3-|

e|-----------------------------------------------|
B|-----------------------------------------------|
G|-------8-8--8-8-8--8-8--8-8-8--8-8--8-8-8--8-8-|
D|4-4-4--8-8--8-8-8--8-8--8-8-8--8-8--8-8-8--8-8-|
A|4-4-4--6-6--6-6-6--6-6--6-6-6--6-6--6-6-6--6-6-|
E|6-6-6------------------------------------------|


BRIDGE:
e|---------------------------------------------|
B|---------------------------------------------|
G|---------------------------------------------|
D|5-------x-x-3-------x-x-8-------x-x-10-------|
A|5-------x-x-3-------x-x-8-------x-x-10-------|
E|3-------x-x-1-------x-x-6-------x-x-8--------|


IN THE SECOND TIME BRIDGE PLAY WITH PALM MUTING RIFF:
e|--------------------------------------------------------------------|
B|--------------------------------------------------------------------|
G|--------------------------------------------------------------------|
D|5-------x-x-3-------x-x-8-------x-x-10-------5-4-3-2-3-4-5-4-3-2-3-4|
A|5-------x-x-3-------x-x-8-------x-x-10-------5-4-3-2-3-4-5-4-3-2-3-4|
E|3-------x-x-1-------x-x-6-------x-x-8--------3-2-1-0-1-2-3-2-1-0-1-2|
                                               PM...............

DURING SAX SOLO GUITAR PLAY THIS:
e|------------------------|---------------------------|
B|------------------------|---------------------------|
G|------------------------|---------------------------|
D|5-4-3-2-3-4-5-4-3-2-3-4-|5-4-3-2-33-4-5-4-3-2-33-4-5|
A|5-4-3-2-3-4-5-4-3-2-3-4-|5-4-3-2-33-4-5-4-3-2-33-4-5|
E|3-2-1-0-1-2-3-2-1-0-1-2-|3-2-1-0-11-2-3-2-1-0-11-2-3|
  PM.....................    PM........   PM........
Tap to rate this tab
 
# A B C D E F G H I J K L M N O P Q R S T U V W X Y Z