Song name
# A B C D E F G H I J K L M N O P Q R S T U V W X Y Z

Dog Fashion Disco - G Eye Joe tab

-------------------------------------------------------------------------------
                          G Eye Joe - Dog Fashion Disco
-------------------------------------------------------------------------------

Tabbed by: Matthew Nesbitt
Email:nesbitt.matt@gmail.com

Tuning: Drop D (DADGBE)


This is how I play G Eye Joe from Dog Fashion Disco's album Embryos in Bloom.
It sounds right to me, but I'm not 100% sure on every note.  Let me know if
you see any mistakes or have any suggestions.


|
| /  slide up
| h  hammer-on
| p  pull-off
| .  mute note above (also used to show rests)
|


I couldn't figure out the exact chords for the section at 0:36 and all of the
similar sections, but I did get the root notes.  If you can figure out the
chords for it, let me now.  If not, I'm still working on it and will update.

There are also alternate ways to play parts of the song, just like in any
song.  For example, sometimes I'll play the [A#,F,A#] power chord on the ADG
strings instead of the DAD strings.  I also sometimes play the  [E,B,E] and
[F,B,F] power chords on the ADG strings instead of the DGB strings.  Which
ever one is easier for you and/or sounds better on your guitar I guess.

A lot of the notes that aren't marked as palm-muted I think are actually
still slightly muted.  You'll have to go by ear to get it to sound perfect.


(0:00) - Rest for 32 quarter beats (drum intro)



(0:10)
e|----------------|----------------|----------------|----------------|
B|----------------|----------------|----------------|----------------|
G|----------------|----------------|----------------|----------------|
D|2-2-3p2-2-2-3p2-|2-2-3p2-2-2-3---|2-2-3p2-2-2-3p2-|2-2-3p2-2-2-3---|
A|2-2-3p2-2-2-3p2-|2-2-3p2-2-2-3---|2-2-3p2-2-2-3p2-|2-2-3p2-2-2-3---|
D|2-2-3p2-2-2-3p2-|2-2-3p2-2-2-3---|2-2-3p2-2-2-3p2-|2-2-3p2-2-2-3---|
  . .     . .      . .     . .   .  . .     . .      . .     . .   .

(0:15)
e|----------------|----------------|----------------|----------------|
B|----------------|----------------|----------------|----------------|
G|----------------|----------------|----------------|----------------|
D|2-2-3---3---2-2-|3---3---2-2-3---|2-2-3---3---2-2-|3---3---2-2-8---|
A|2-2-3---3---2-2-|3---3---2-2-3---|2-2-3---3---2-2-|3---3---2-2-8---|
D|2-2-3---3---2-2-|3---3---2-2-3---|2-2-3---3---2-2-|3---3---2-2-8---|
  . .   .     . .    .     . .      . .   .     . .    .     . .   .

(0:20)
e|----------------|----------------|----------------|----------------|
B|----------------|----------------|----------------|----------------|
G|----------------|----------------|----------------|----------------|
D|2-2-3p2-2-2-3p2-|2-2-3p2-2-2-3---|2-2-3p2-2-2-3p2-|2-2-3p2-2-2-3---|
A|2-2-3p2-2-2-3p2-|2-2-3p2-2-2-3---|2-2-3p2-2-2-3p2-|2-2-3p2-2-2-3---|
D|2-2-3p2-2-2-3p2-|2-2-3p2-2-2-3---|2-2-3p2-2-2-3p2-|2-2-3p2-2-2-3---|
  . .     . .      . .     . .   .  . .     . .      . .     . .   .

(0:26)
e|----------------|----------------|----------------|----------------|
B|----------------|----------------|----------------|----------------|
G|----------------|----------------|----------------|----------------|
D|2-2-3---3---2-2-|3---3---2-2-3---|2-2-3---3---2-2-|3---3---2h3/8---|
A|2-2-3---3---2-2-|3---3---2-2-3---|2-2-3---3---2-2-|3---3---2h3/8---|
D|2-2-3---3---2-2-|3---3---2-2-3---|2-2-3---3---2-2-|3---3---2h3/8---|
  . .   .     . .    .     . .      . .   .     . .    .     . .   .


(0:31) - Rest for 16 quarter beats


(0:36)
e|----------------|----------------|----------------|----0-----0-----|
B|----------------|----------------|----------------|----------------|
G|----------------|----------------|----------------|1-1---1-1---3---|
D|----------------|----------------|----------------|----------------|
A|----------------|----------------|----------------|----------------|
D|----------------|----------------|----------------|----------------|


(0:41) - Rest for 16 quarter beats


(0:47)
e|----------------|----------------|----------------|----0-----0-----|
B|----------------|----------------|----------------|----------------|
G|----------------|----------------|----------------|1-1---1-1---3---|
D|----------------|----------------|----------------|----------------|
A|----------------|----------------|----------------|----------------|
D|----------------|----------------|----------------|----------------|


(0:52)
e|----------------|----------------|----------------|----------------|
B|5-5-6-5---5-6-5-|--5-6-5---5-----|5-5-6-5---5-6-5-|--5-6-5---5-----|
G|4-4-5-4---4-5-4-|--4-5-4---4-----|4-4-5-4---4-5-4-|--4-5-4---4-----|
D|2-2-3-2---2-3-2-|--2-3-2---2-----|2-2-3-2---2-3-2-|--2-3-2---2-----|
A|----------------|----------------|----------------|----------------|
D|----------------|----------------|----------------|----------------|
                               . .                                . .

(0:57)
e|----------------|----------------|----------------|----------------|
B|5-5-6-5---5-6-5-|--5-6-5---5-----|5-5-6-5---5-6-5-|--5-6-5---5-----|
G|4-4-5-4---4-5-4-|--4-5-4---4-----|4-4-5-4---4-5-4-|--4-5-4---4-----|
D|2-2-3-2---2-3-2-|--2-3-2---2-----|2-2-3-2---2-3-2-|--2-3-2---2-----|
A|----------------|----------------|----------------|----------------|
D|----------------|----------------|----------------|----------------|
                               . .                                . .

(1:02)
e|----------------|----------------|----------------|----------------|
B|----------------|----------------|----------------|----------------|
G|----------------|----------------|----------------|----------------|
D|2-2-3p2-2-2-3p2-|2-2-3p2-2-2-3---|2-2-3p2-2-2-3p2-|2-2-3p2-2-2-3---|
A|2-2-3p2-2-2-3p2-|2-2-3p2-2-2-3---|2-2-3p2-2-2-3p2-|2-2-3p2-2-2-3---|
D|2-2-3p2-2-2-3p2-|2-2-3p2-2-2-3---|2-2-3p2-2-2-3p2-|2-2-3p2-2-2-3---|
  . .     . .      . .     . .   .  . .     . .      . .     . .   .

(1:07)
e|----------------|----------------|----------------|----------------|
B|----------------|----------------|----------------|----------------|
G|----------------|----------------|----------------|----------------|
D|2-2-3---3---2-2-|3---3---2-2-3---|2-2-3---3---2-2-|3---3---2h3/8---|
A|2-2-3---3---2-2-|3---3---2-2-3---|2-2-3---3---2-2-|3---3---2h3/8---|
D|2-2-3---3---2-2-|3---3---2-2-3---|2-2-3---3---2-2-|3---3---2h3/8---|
  . .   .     . .    .     . .      . .   .     . .    .     . .   .


(1:12) - Rest for 16 quarter beats



(1:18)
e|----------------|----------------|----------------|----0-----0-----|
B|----------------|----------------|----------------|----------------|
G|----------------|----------------|----------------|1-1---1-1---3---|
D|----------------|----------------|----------------|----------------|
A|----------------|----------------|----------------|----------------|
D|----------------|----------------|----------------|----------------|



(1:23) - Rest for 16 quarter beats



(1:28)
e|----------------|----------------|----------------|----0-----0-----|
B|----------------|----------------|----------------|----------------|
G|----------------|----------------|----------------|1-1---1-1---3---|
D|----------------|----------------|----------------|----------------|
A|----------------|----------------|----------------|----------------|
D|----------------|----------------|----------------|----------------|


(1:33)
e|----------------|----------------|----------------|----------------|
B|5-5-6-5---5-6-5-|--5-6-5---5-----|5-5-6-5---5-6-5-|--5-6-5---5-----|
G|4-4-5-4---4-5-4-|--4-5-4---4-----|4-4-5-4---4-5-4-|--4-5-4---4-----|
D|2-2-3-2---2-3-2-|--2-3-2---2-----|2-2-3-2---2-3-2-|--2-3-2---2-----|
A|----------------|----------------|----------------|----------------|
D|----------------|----------------|----------------|----------------|
                               . .                                . .

(1:38)
e|----------------|----------------|----------------|----------------|
B|5-5-6-5---5-6-5-|--5-6-5---5-----|5-5-6-5---5-6-5-|--5-6-5---5-----|
G|4-4-5-4---4-5-4-|--4-5-4---4-----|4-4-5-4---4-5-4-|--4-5-4---4-----|
D|2-2-3-2---2-3-2-|--2-3-2---2-----|2-2-3-2---2-3-2-|--2-3-2---2-----|
A|----------------|----------------|----------------|----------------|
D|----------------|----------------|----------------|----------------|
                               . .                                . .

(1:43)
e|----------------|----------------|----------------|----------------|
B|----------------|----------------|----------------|----------------|
G|----------------|----------------|----------------|----------------|
D|0-0-8---0-8---0-|5---0-5---------|0-0-8---0-8---0-|5---0-5---------|
A|0-0-8---0-8---0-|5---0-5---------|0-0-8---0-8---0-|5---0-5---------|
D|0-0-8---0-8---0-|5---0-5---------|0-0-8---0-8---0-|5---0-5---------|
  . .     .     .      .     . . .  . .     .     .      .     . . .


(1:48)
e|----------------|----------------|----------------|----------------|
B|----------------|----------------|----------------|----------------|
G|----------------|----------------|----------------|----------------|
D|0-0-8---0-8---0-|5---0-5---------|0-0-8---0-8---0-|5---0-3---0-5---|
A|0-0-8---0-8---0-|5---0-5---------|0-0-8---0-8---0-|5---0-3---0-5---|
D|0-0-8---0-8---0-|5---0-5---------|0-0-8---0-8---0-|5---0-3---0-5---|
  . .     .     .      .     . . .  . .     .     .      .     .

(1:54)
e|----------------|----------------|----------------|----------------|
B|----------------|----------------|----------------|----------------|
G|----------------|----------------|----------------|----------------|
D|0-0-8---0-8---0-|5---0-3---0-5---|0-0-8---0-8---0-|5---0-3---0-5---|
A|0-0-8---0-8---0-|5---0-3---0-5---|0-0-8---0-8---0-|5---0-3---0-5---|
D|0-0-8---0-8---0-|5---0-3---0-5---|0-0-8---0-8---0-|5---0-3---0-5---|
  . .     .     .      .     .      . .     .     .      .     .

(1:59)
e|----------------|----------------|----------------|----------------|
B|----------------|----------------|----------------|----------------|
G|----------------|----------------|----------------|----------------|
D|0-0-8---0-8---0-|5---0-3---0-5---|0-0-8---0-8---0-|5---0-5---0-5---|
A|0-0-8---0-8---0-|5---0-3---0-5---|0-0-8---0-8---0-|5---0-5---0-5---|
D|0-0-8---0-8---0-|5---0-3---0-5---|0-0-8---0-8---0-|5---0-5---0-5---|
  . .     .     .      .     .      . .     .     .      .     .

(2:04)
e|----------------|----------------|----------------|----------------|
B|----------------|----------------|----------------|----------------|
G|----------------|----------------|----------------|----------------|
D|0-0-8---0-8---0-|5---0-3---0-5---|0-0-8---0-8---0-|5---0-3---0-5---|
A|0-0-8---0-8---0-|5---0-3---0-5---|0-0-8---0-8---0-|5---0-3---0-5---|
D|0-0-8---0-8---0-|5---0-3---0-5---|0-0-8---0-8---0-|5---0-3---0-5---|
  . .     .     .      .     .      . .     .     .      .     .

(2:09)
e|----------------|----------------|----------------|----------------|
B|----------------|----------------|----------------|----------------|
G|----------------|----------------|----------------|----------------|
D|0-0-8---0-8---0-|5---0-3---0-5---|0-0-8---0-8---0-|5---0-3---0-5---|
A|0-0-8---0-8---0-|5---0-3---0-5---|0-0-8---0-8---0-|5---0-3---0-5---|
D|0-0-8---0-8---0-|5---0-3---0-5---|0-0-8---0-8---0-|5---0-3---0-5---|
  . .     .     .      .     .      . .     .     .      .     .

(2:15)
e|----------------|----------------|----------------|----------------|
B|----------------|----------------|----------------|----------------|
G|----------------|----------------|----------------|----------------|
D|2-2-3p2-2-2-3p2-|2-2-3p2-2-2-3---|2-2-3p2-2-2-3p2-|2-2-3p2-2-2-3---|
A|2-2-3p2-2-2-3p2-|2-2-3p2-2-2-3---|2-2-3p2-2-2-3p2-|2-2-3p2-2-2-3---|
D|2-2-3p2-2-2-3p2-|2-2-3p2-2-2-3---|2-2-3p2-2-2-3p2-|2-2-3p2-2-2-3---|
  . .     . .      . .     . .   .  . .     . .      . .     . .   .

(2:20)
e|----------------|----------------|----------------|----------------|
B|----------------|----------------|----------------|----------------|
G|----------------|----------------|----------------|----------------|
D|2-2-3---3---2-2-|3---3---2-2-3---|2-2-3---3---2-2-|3---3---2-2-8---|
A|2-2-3---3---2-2-|3---3---2-2-3---|2-2-3---3---2-2-|3---3---2-2-8---|
D|2-2-3---3---2-2-|3---3---2-2-3---|2-2-3---3---2-2-|3---3---2-2-8---|
  . .   .     . .    .     . .      . .   .     . .    .     . .   .


(2:25) - Rest for 16 quarter beats (bass and vocals)



(2:30)
e|----------------|----------------|----------------|----0-----0-----|
B|----------------|----------------|----------------|----------------|
G|----------------|----------------|----------------|1-1---1-1---3---|
D|----------------|----------------|----------------|----------------|
A|----------------|----------------|----------------|----------------|
D|----------------|----------------|----------------|----------------|



(2:35) - Rest for 16 quarter beats (bass and vocals)



(2:41)
e|----------------|----------------|----------------|----0-----0-----|
B|----------------|----------------|----------------|----------------|
G|----------------|----------------|----------------|1-1---1-1---3---|
D|----------------|----------------|----------------|----------------|
A|----------------|----------------|----------------|----------------|
D|----------------|----------------|----------------|----------------|


(2:46)
e|----------------|----------------|----------------|----------------|
B|5-5-6-5---5-6-5-|--5-6-5---5-----|5-5-6-5---5-6-5-|--5-6-5---5-----|
G|4-4-5-4---4-5-4-|--4-5-4---4-----|4-4-5-4---4-5-4-|--4-5-4---4-----|
D|2-2-3-2---2-3-2-|--2-3-2---2-----|2-2-3-2---2-3-2-|--2-3-2---2-----|
A|----------------|----------------|----------------|----------------|
D|----------------|----------------|----------------|----------------|
                               . .                                . .

(2:51)
e|----------------|----------------|----------------|----------------|
B|5-5-6-5---5-6-5-|--5-6-5---5-----|5-5-6-5---5-6-5-|--5-6-5---5-----|
G|4-4-5-4---4-5-4-|--4-5-4---4-----|4-4-5-4---4-5-4-|--4-5-4---4-----|
D|2-2-3-2---2-3-2-|--2-3-2---2-----|2-2-3-2---2-3-2-|--2-3-2---2-----|
A|----------------|----------------|----------------|----------------|
D|----------------|----------------|----------------|----------------|
                               . .                                . .

(2:56)
e|----------------|----------------|----------------|----------------|
B|----------------|----------------|----------------|----------------|
G|----------------|----------------|----------------|----------------|
D|0-0-8---0-8---0-|5---0-5---------|0-0-8---0-8---0-|5---0-5---------|
A|0-0-8---0-8---0-|5---0-5---------|0-0-8---0-8---0-|5---0-5---------|
D|0-0-8---0-8---0-|5---0-5---------|0-0-8---0-8---0-|5---0-5---------|
  . .     .     .      .     . . .  . .     .     .      .     . . .

(3:01)
e|----------------|----------------|----------------|----------------|
B|----------------|----------------|----------------|----------------|
G|----------------|----------------|----------------|----------------|
D|0-0-8---0-8---0-|5---0-5---------|0-0-8---0-8---0-|5---0-3---0-5---|
A|0-0-8---0-8---0-|5---0-5---------|0-0-8---0-8---0-|5---0-3---0-5---|
D|0-0-8---0-8---0-|5---0-5---------|0-0-8---0-8---0-|5---0-3---0-5---|
  . .     .     .      .     . . .  . .     .     .      .     .

(3:06)
e|----------------|----------------|----------------|----------------|
B|----------------|----------------|----------------|----------------|
G|----------------|----------------|----------------|----------------|
D|0-0-8---0-8---0-|5---0-3---0-5---|0-0-8---0-8---0-|5---0-3---0-5---|
A|0-0-8---0-8---0-|5---0-3---0-5---|0-0-8---0-8---0-|5---0-3---0-5---|
D|0-0-8---0-8---0-|5---0-3---0-5---|0-0-8---0-8---0-|5---0-3---0-5---|
  . .     .     .      .     .      . .     .     .      .     .

(3:12)
e|----------------|----------------|----------------|----------------|
B|----------------|----------------|----------------|----------------|
G|----------------|----------------|----------------|----------------|
D|0-0-8---0-8---0-|5---0-3---0-5---|0-0-8---0-8---0-|5---0-5---0-5---|
A|0-0-8---0-8---0-|5---0-3---0-5---|0-0-8---0-8---0-|5---0-5---0-5---|
D|0-0-8---0-8---0-|5---0-3---0-5---|0-0-8---0-8---0-|5---0-5---0-5---|
  . .     .     .      .     .      . .     .     .      .     .

(3:17)
e|----------------|----------------|----------------|----------------|
B|----------------|----------------|----------------|----------------|
G|----------------|----------------|----------------|----------------|
D|0-0-8---0-8---0-|5---0-3---0-5---|0-0-8---0-8---0-|5---0-3---0-5---|
A|0-0-8---0-8---0-|5---0-3---0-5---|0-0-8---0-8---0-|5---0-3---0-5---|
D|0-0-8---0-8---0-|5---0-3---0-5---|0-0-8---0-8---0-|5---0-3---0-5---|
  . .     .     .      .     .      . .     .     .      .     .

(3:22)
e|----------------|----------------|----------------|----------------|
B|----------------|----------------|----------------|----------------|
G|----------------|----------------|----------------|----------------|
D|0-0-8---0-8---0-|5---0-3---0-5---|0-0-8---0-8---0-|5---0-4---------|
A|0-0-8---0-8---0-|5---0-3---0-5---|0-0-8---0-8---0-|5---0-4---------|
D|0-0-8---0-8---0-|5---0-3---0-5---|0-0-8---0-8---0-|5---0-4---------|
  . .     .     .      .     .      . .     .     .      .     . . .


That's it.  Let me know if you see any mistakes or have suggestions.
Hope this helped.
===============================================================================
Tap to rate this tab
# A B C D E F G H I J K L M N O P Q R S T U V W X Y Z