Song name
# A B C D E F G H I J K L M N O P Q R S T U V W X Y Z

Dog Fashion Disco - Desert Grave tab

-------------------------------------------------------------------------------
			     DESERT GRAVE - Dog Fashion Disco
-------------------------------------------------------------------------------
Tabbed by: thejmt
Email: thejmt@gmail.com

Tuning: Standard (E-A-D-G-B-E)

Intro/Verse
I'm Diggin' you a Desert Grave...
e|------0----0-0-0----0-0---------|
B|------1----1-1-1----1-1---------|
G|------2----2-2-2----2-2---------|
D|------2----2-2-2----2-2---------|
A|---0-------------0--------------|
E|-------------------------0--3---|

...you won't be found by anyone...
e|------0----0-0-0----0-0---------|
B|------0----0-0-0----0-0---------|
G|------1----1-1-1----1-1---------|
D|------2----2-2-2----2-2---------|
A|------2----2-2-2----2-2---------|
E|---0-------------0-------0--3---|

Clean Electric part
e|----------------------------|------------------------------------------------|
B|----------------------------|------------------------------------------------|
G|-----------/4---------------|-----------/4-----------------------------------|
D|------5-7-------7--5-7------|------5-7-------7--6----------------------------|
A|---7--------------------7---|---7------------------7-----/9--7---------------|
E|----------------------------|-------------------------7----------------------|

Burying the sins of man...
e|------2----2-------2----2-----------1----1-1-1----0----0-0-0---------------|
B|------3----3-3-----3----3-3-3-------2----2-2-2----0----0-0-0---------------|
G|------2----2-2-----2----2-2-2-------2----2-2-2----1----1-1-1---------------|
D|---0------------0----------------3-------------2---------------------------|
A|---------------------------------------------------------------------------|
E|---------------------------------------------------------------------------|

Clean Electric part
e|------------------------------------|
B|---7--------------------------------|
G|------7-----7/9---------------------|
D|---------7-------10---9--7--6--/7---|
A|------------------------------------|
E|------------------------------------|

This part plays during the banjo part while he's humming, just before the outro
e|----------------------------------------------------------------------------------------------|
B|------------------------------------------------------------------------------------------1---|
G|-----------------------------------2------2------2-----5-----4------1-----1-----1---------2---|
D|------2------2------2------2----0-------0-----3-----3-----3------2-----2-----2------------2---|
A|---0-------0-----3-------3---------------------------------------------------------3--2---0---|
E|----------------------------------------------------------------------------------------------|

Outro
e|---3-------|--2---2--2---2----2------------0----0--------3--3-3---|
B|------1----|--3---3--3---3----3--3p0---1---1--1-----1----1--1-1---|
G|--------2--|--2---2------2----2--2-----2---2--2----------2--2-----|
D|-----------|--0---0--------------------2---2----------2-----------|
A|-----------|---------------0-----------0---0----------------------|
E|-----------|------------------------------------------------------|

e|---------------------0--0-----0---|
B|------------------1--0-----0--1---|
G|---------------0-----1--------2---|
D|------------2--------2--------2---|
A|---0--2--3-----------2--------0---|
E|---------------------0------------|


| /  slide up
| \  slide down
| h  hammer-on
| p  pull-off
| ~  vibrato
| +  harmonic
| x  Mute note
===============================================================================
Tap to rate this tab
 
# A B C D E F G H I J K L M N O P Q R S T U V W X Y Z