Song name
# A B C D E F G H I J K L M N O P Q R S T U V W X Y Z

Dogbuoy - Mozzies tab

Mozzies
D O G B U O Y
Tabbed by Aaron Bridgeman (rokken@sicness.net)

http://bogans.arecool.net

KEY:
x   = fret mute
pm. = palm mute

INTRO:
e|----------------|
B|----------------|
G|----------------|
D|-9-9--x-x-------|
A|-7-7--x-x--5--5-|
E|------x-x--3--3-|

VERSE:
Fret muting, and slides up and down the fretboard
IMPROVISE!!!

CHORUS:
e|----------------------------------------------------------------|
B|----------------------------------------------------------------|
G|----------------------------------------------------------------|
D|---------------------------------5-------5-------7-------7------|
A|-2-------2-------5-------5-------3--3-3--3--3-3--5--5-5--5--5-5-|
E|-0--0-0--0--0-0--3--3-3--3--3-3---------------------------------|
pm    . .     . .     . .     . .     . .     . .     . .     . .

AND THAT'S IT!
Tap to rate this tab
# A B C D E F G H I J K L M N O P Q R S T U V W X Y Z