Guitaretab - guitar tabs
Song name
# A B C D E F G H I J K L M N O P Q R S T U V W X Y Z

Dogs Die In Hot Cars - Nobody Teaches The World Anything Boots Advert tab

 
Tabbed By: Natty Harrison
Email: Natty12345@hotmail.co.uk

Band: Dogs Die In Hot Cars
Song: Nobody Teaches The World Anything
Album: Man Bites Man EP


I Tabed this song because i couldn't find it anywhere on the internet, so i listened
to it, tabbed it, made corrections and i think this is around 95% correct now.

If You Play the song on sound recorder a couple of times and then set it on reverse,
if you then play the song over it, it sounds just like real thing.

Enjoy.......................................................And Please Rate

Standard Tuning: E A D G B e
[ Tab from: http://www.guitaretab.com/d/dogs-die-in-hot-cars/65360.html ]
 e| |----------11-----------------------------------------11---------------|
 B| |----------------------------------------------------------------------|
 G| |----------------------------------------------------------------------|
 D| |----------------------------------------------------------------------|
 A| |----------------------------------------------------------------------|
 E| |----------------------------------------------------------------------|
 
 
 e| |----------11-8------11-11p8-8--------------11p8-----------------------|
 B| |---------------9-----------------9-8h9-9--------9---------------------|
 G| |----------------------------------------------------------------------|
 D| |----------------------------------------------------------------------|
 A| |----------------------------------------------------------------------|
 E| |----------------------------------------------------------------------|


 e| |----------11-8------11-11p8-8--------------11p8-----------------------|
 B| |---------------9-----------------9-8h9-9--------9---------------------|
 G| |----------------------------------------------------------------------|
 D| |----------------------------------------------------------------------|
 A| |----------------------------------------------------------------------|
 E| |----------------------------------------------------------------------|

 Alternate pick this part over the normal riff

 e| |-8-8-8-8-8-8-8-8-11-11-11-11-13-13-13-13-11-11-11-11-8-8-8-8-8-8-8-8--|
 B| |----------------------------------------------------------------------|
 G| |----------------------------------------------------------------------|
 D| |----------------------------------------------------------------------|
 A| |----------------------------------------------------------------------|
 E| |----------------------------------------------------------------------|


 | /  slide up
 | \  slide down
 | h  hammer-on
 | p  pull-off
 | ~  vibrato
 | +  harmonic
 | x  Mute note

Please Rate This Tab 
Related for Nobody Teaches The World Anything Boots Advert tab
Advertisement will be closed in 10 seconds