Song name
# A B C D E F G H I J K L M N O P Q R S T U V W X Y Z

Dogs Die In Hot Cars - Nobody Teaches Life Anything tab

-------------------------------------------------------------------------
         Nobody Teaches Life Anything - Dogs Die in Hot Cars
-------------------------------------------------------------------------

Tabbed by: Yoshima
Email: derby@fsmail.net

Tuning: Standard
Capo: 8th fret

Capo or bar with finger on the 8th Fret.

Chords fingerpicked (relative to capo) are C, G, Am and F

Its pretty easy to figure out once you know these chords but incase you can't......

     C             G           Am        F  

e|---3------------------3p0---------------------------------|
B|-----1-----1-------------0------0h1p0---------1-----------|
G|-----------0-------0-----------------2----------2---2-----|
D|---------2--------0-----------2----------3--------3-------|
A|---3---3---3--0-------------0---0----------3--3-----------|
E|-----------------3---------------------1------------------|


e|--------(0)-----------3--3p0------------------------------|
B|---------1-----0----0-------0------0h1p0-------1-1--------|
G|---------0-----0----0------------2------0----0--0---------|
D|------2--------0----------------2-----------3-------------|
A|---3-----3--0---------2--------0-----------3---3----------|
E|------------------3------3--------------------------------|


Theres no right way of playing this song really. The pattern varies each time round.



| h  hammer-on
| p  pull-off

============================================================================
Tap to rate this tab
 
# A B C D E F G H I J K L M N O P Q R S T U V W X Y Z