Dogwood - Pre School Days tab

Dogwood - "Pre School Days" - Through Thick & Thin [Db,Ab,Db,Gb,Bb,Eb]
Tabbed By Jordan Fuller 7/22/10

Intro(clean) All Single Notes Are Palm Muted

Db:-----------------------------------------------------------------------|
Ab:8-8-8-8-8-8-8-8-8-8-8-7-7-7-7-7-7-7-7-8p7-8p7p5-5-5-5-5-5/8-8-8-7-8-8--|
Db:10------------10--101010--------------10--10107-----7-7-7/10------1010-|
Gb:-----------------------------------------------------------------------|x2
Bb:-----------------------------------------------------------------------|
Eb:-----------------------------------------------------------------------|

Verse(distortion)

Db:-----------------------------------------------------------------------|
Ab:8-8-8-8-8-8-8-8-8-8-8-7-7-7-7-7-7-7-7-7-7-7-7-5-5-5-5-5-5/8-8-8-7-8-8--|
Db:x-x-x-x-x-x-x-x-x-x-x-x-x-x-x-x-x-x-x-x-x-x-x-x-x-x-x-x-x-x-x-x-x-x-x--|x2
Gb:10101010101010101010109-9-9-9-9-9-9-9-9-9-9-9-7-7-7-7-7-7/1010109-1010-|
Bb:-----------------------------------------------------------------------|
Eb:-----------------------------------------------------------------------|

Chorus Rythem

Db:----------------------------------------------------------------------|
Ab:5-5-5-5-5-5-5-5-5-5-5-3-3-3-3-3-3-3-3-3-3-3-3-0-0-0-0-0-0-1-1-1-1-1-1-|
Db:7-7-7-7-7-7-7-7-7-7-7-5-5-5-5-5-5-5-5-5-5-5-5-2-2-2-2-2-2-3-3-3-3-3-3-|
Gb:7-7-7-7-7-7-7-7-7-7-7-5-5-5-5-5-5-5-5-5-5-5-5-2-2-2-2-2-2-3-3-3-3-3-3-|
Bb:----------------------------------------------------------------------|
Eb:----------------------------------------------------------------------|

Chorus Lead
Db:-----------------------------------------------------------------------|
Ab:8-8-8-8-8-8-8-8-1513127-7-7-7-7-7-7-7-1513125-5-5-5-12108-8-8-8-8-8-8--|
Db:x-x-x-x-x-x-x-x-x-x-x-x-x-x-x-x-x-x-x-x-x-x-x-x-x-x-x-x-x-x-x-x-x-x-x--|
Gb:10101010101010101715149-9-9-9-9-9-9-9-1715147-7-7-7-141210101010101010-|
Bb:-----------------------------------------------------------------------|
Eb:-----------------------------------------------------------------------|

Verse Lead

Db:-----------------------------------------------------------------------|
Ab:8-8-8-8-8-8-8-8/1513127-7-7-7-7-7-7-7/1513125-5-5-5/12108-8-8-8-8-8-8--|
Db:1010101010101010------1010101010101010------7-7-7-7-------101010101010-|
Gb:-----------------------------------------------------------------------|
Bb:-----------------------------------------------------------------------|
Eb:-----------------------------------------------------------------------|

/ - Slide Up
p - Pull-Off
h - Hammer-On
\ - Slide Down

Intro x2
Verse x2
Chorusx2 w/Chorus Lead
Verse x2
Chorusx2 w/Chorus Lead
Verse x2 w/Verse Lead
Chorusx2 w/Chorus Lead
Verse x2

Last Note
Ab:8-8-8-7-8-7-8\-
Db:10101010101010\-

Message Me Or email Me For Any Problems Or If You Wanna Use This For Something.....Enjoy!
Tap to rate this tab
 
# A B C D E F G H I J K L M N O P Q R S T U V W X Y Z