Song name
# A B C D E F G H I J K L M N O P Q R S T U V W X Y Z

Dogwood - Stairway To Sin tab

INTRO
E----------3-3-3-3-------------|
A-----2-2----------5-5-4-4-5-4-|
D------------------------------|
G------------------------------|
X4

E-------------3-3-3-3-3-3-----------------------------|
A--2-2-2-2-2-2-------------5-5-5--------4-4-4---------|
D--------------------------------7-6-5---------4-3-2--|
G-----------------------------------------------------|

E--------------3-3-3-3-3-3----------------------------|
A--2-2-2-2-2-2-------------5-5-5--------4-4-4---------|
D-------------------------------5-6-7----------4-3-2--|
G-----------------------------------------------------|

E-----------3-----------|
A--5--4--2--------------|
D-----------------------|
G-----------------------|
X3

THEN REPEAT SET 2 AND 3
THEN REPEAT SET 4
THEN REPEAT THE INTRO 8X
THEN

E---------------3--3-------------------|
A--2-2-2-2-2-2-------5-5-5-5-4-4-4-5-4-|
D--------------------------------------|
G--------------------------------------|

THEN REPEAT SET 2 AND 3 AGAIN
THEN REPEAT SET 4
Tap to rate this tab
# A B C D E F G H I J K L M N O P Q R S T U V W X Y Z