Song name
# A B C D E F G H I J K L M N O P Q R S T U V W X Y Z

Dogwood - Bad Times tab

-------------------------------------------------------------------------------
		  the bad times (reprise) - Dogwood
-------------------------------------------------------------------------------
Tabbed by: Ziplinedown
Email: ijohannes@ups.edu

This is an easy song, just listen for the timing and repeat this througout the song

e|--x------x------x----x----------------------------------------------------|
B|--x------x------x----x----------------------------------------------------|
G|--7------7------6----4----------------------------------------------------|
D|--7------7------7----5----------------------------------------------------|
A|--5------x------7----5----------------------------------------------------|
E|--x------7------5----3----------------------------------------------------|

He walked away, turned around to watch friends fade.
Chased by enimies he made, like sin and lust, collecting dust, on his faith.
sure they showed him the good times but they all ended in bad times

in bad times

Let last note ring

| /  slide up
| \  slide down
| h  hammer-on
| p  pull-off
| ~  vibrato
| +  harmonic
| x  Mute note
===============================================================================
Tap to rate this tab
# A B C D E F G H I J K L M N O P Q R S T U V W X Y Z