Song name
# A B C D E F G H I J K L M N O P Q R S T U V W X Y Z

Dok7 - Dobar Dan tab

Intro rif:

        PM-
E|-----------------------------------------|
H|-----------------------------------------|
G|------777-77x----------------------------|
D|-4-4--555-44x-------77-7------99-9--5-7--|   x4
A|-2-2-----------4-5--55-5-77-7-77-7--3-5--|
E|---------------2-3-------55-5------------|

Strofa:

H5    E5   D5           A5
Dobar dan, mi smo došli preko oglasa,
Cujem gradom kruži prica ovde ima džabe snimanja.
Pitanje, kakva je to vaša muzika?
Svirajte mi koju pesmu, možda mi se neka zasvida.

(Melodija za 2. polovinu strofe):

E|--------------------------|
H|--------------------------|
G|---9--11--12--11--9-------|
D|-99-99--99--99--99-9------|  x4
A|--------------------------|
E|--------------------------|


Refren:


E|--------------------------------------------------|
H|--------------------------------------------------|
G|--------------------------------------------------|
D|-4-4-444---------------------------7-7-77777------|
A|-2-2-222---5-55-5555---7-7-777-----5-5-55544------|
E|-----------3-33-3333---5-5-555--------------------|

  Uuuuuu.................kakva je to vaša muzika,
  Uuuuuu, nema za vas ovde snimanja.
  Uuuuuu, kakva je to vaša muzika,
  Uuuuuu, dosta mi je zajebavanja!

Solo:

E|---------------------------------------17----------------|
H|-15b17r15--15-17-17b19r17---15-14-14-15--17--15-14-12----|
G|---------------------------------------------------------|
D|---------------------------------------------------------|
A|---------------------------------------------------------|
E|---------------------------------------------------------|

E|---------------------------------------------------------|
H|---------------------------------------------------------|
G|-14-12-11-12-11----12-11----11-12-11---------------------|
D|----------------12-------12----------12------------------|
A|---------------------------------------------------------|
E|---------------------------------------------------------|

E|----14-12-------14-12-------14-12----12-14-12----12-14-12----|
H|-12-------15-12-------15-12-------15----------15----------15-|
G|-------------------------------------------------------------| x2
D|-------------------------------------------------------------|
A|-------------------------------------------------------------|
E|-------------------------------------------------------------|

Break: H5 E5 D5 B5

Strofa:

Je li bre, za šta vi to mene smatrate,
Godinama slušam sranja i ne trpim zajebancije!
Napolje, sa tim sranjem koje svirate,
Gonite se u tri lepe, možda tamo srece imate!


http://www.dok7punx.com/
Tap to rate this tab
# A B C D E F G H I J K L M N O P Q R S T U V W X Y Z