Song name
# A B C D E F G H I J K L M N O P Q R S T U V W X Y Z

Dok7 - I Dalje Pokusavam tab

Intro:


E|-----------------------------------------------------------|
H|-----------------------------------------------------------|
G|-7-7--7--7-7-7--8-8-8-7--7-7-7--5-5--5--5-5--3-3--3--3-3---|
D|-5-5--5--5-5-5--5-5-5-5--5-5-5--3-3--3--3-3--1-1--1--1-1---| X3
A|-----------------------------------------------------------|
E|-----------------------------------------------------------|
   G5                             D#5          C5

Gitara 2-(strofa):

E|-------------------|
H|-------------------|
G|-------------------|
D|--5---8---10--8----|
A|-------------------|
E|--3---6---8---6----|

Strofa:

G5
Probudio se kasno, oko pola jedan,
D#5             C5
poceo mi dan, a ja sam tako sjeban.
Nisam jos ni usto, a tako mi se spava,
ne znam sta da radim i boli glava.

G5
Dokle da zivim ja ovako,
D#5            C5
bez imalo nade i sa svojim strahom.
G5                      D#5
Dokle da zivim ja ovako,
   C5              F5 F#5
ne zelim ja ovako!

Refren:

Gitara 1:
E|-----------------------------------------------|
H|-----------------------------------------------|
G|-7-7--9--10-101010-101010--5-5-555--3-333-333--|
D|-5-5--7--8--8-8-8--8-8-8---3-3-333--1-111-111--|
A|-----------------------------------------------|
E|-----------------------------------------------|

Gitara 2:
E|--------------------------------------------------------|
H|-11-11--10--11-1111-10-101010--10-10-101010--8-888-888--|
G|-10-10--10--10-1010-10-101010--10-10-101010--8-888-888--|
D|-8--8---8---8--8-8--8--8-8-8----------------------------|
A|-------------------------------8--8--8-8-8---6-666-666--|
E|--------------------------------------------------------|

G      B   F        D#
Stalno ja, uporno pokusavam
i trudim se izaci iz agonije.
Uspevam, ponekad ja i pobedim,
ludilo koje mene non stop prati.

Solo:
E|--------------------------------------------------------------------|
H|--10--11--13-11---11-10---------------------------------------------|
G|10--10--10------10------10------------------------------------------|
D|--------------------------12-10----10-12b14-12b14-12b14r12-12-10-12-|
A|----------------------------------12--------------------------------|
E|--------------------------------------------------------------------|
  G            B                    F                              D#

Break:
E|-----------------------    -111111-1010101010--111111-1010101010|
H|-11-11-10-101010101010-    -111111-1111111111--111111-1111111111|
G|-10-10-10-101010101010- x2 -101010-1010101010--101010-1010101010|X2
D|-8--8--8--8-8-8-8-8-8--    -------------------------------------|
A|-----------------------    -------------------------------------|
E|-----------------------    -------------------------------------|
   G                          B

Strofa:

Ustajem i lutam, trazim svoje pljuge,
nasao sam carapu, ali nema druge.
Sada kad je imam mnogo mi je lakse,
zujao bih negde makar unatraske.

Dokle da zivim ja ovako,
bez imalo nade i sa svojim strahom.
Dokle da zivim ja ovako,
ne zelim ja ovako!

  _________________
 /www.dok7punx.com/
Tap to rate this tab
# A B C D E F G H I J K L M N O P Q R S T U V W X Y Z