Song name
# A B C D E F G H I J K L M N O P Q R S T U V W X Y Z

Dokken - Kiss Of Death tab

Legend
------

h  = hammer-on
p  = pull-off
b  = bend
r  = bend release
/  = slide up/down
<5> = natural harmonic
[5] = artifical harmonic
~  = vibrato
tr = trill

Intro: Play 5 times          
E|-------------------------------|--------------------------|---------|
B|*------------------------------|--------------------------|---------|
G|--9\7-------7-----------7------|------7-----------7-------|-9\7-----|
D|--9\7-------7-----------7------|------7-----------7-------|-9\7-----|
A|*-7\5-------5-----------5------|------5-----------5-----1/|-7\5-----|
E|-------0-0-----0-0-0-0-----0-0-|-0-0-----0-0-0-0----0-0---|-----0-0-|


E|-------------------|----------------------------------------|--------|
B|-------------------|---------------------------------------*|--------|
G|--7----------7-----|------7---------------------------------|-9\7-7--|
D|--7----------7-----|------7---------------------------------|-9\7-7--|
A|--5----------5-----|------5-----------1p0-------1p0--------*|-7\5-5--|
E|----0-0-0-0----0-0-|-0-0-----0-0-0-0-------3p0-------3-3p0--|--------|



E|----------|-------------------------------|------------------|-------|
B|----------|-------------------------------|------------------|-------|
G|----------|-------------------------------|---------9--------|-------|
D|----------|-------------------------------|-7/9/12--9--------|-------|
A|----------|-------------------------------|-7/7/10--7--------|-------|
E|--0-0-0-0-|-0-0-0-0-0-0-0-0-0-0-0-0-0-0-0-|-5/7/10--7----0-0-|-0-0-0-|



E|--------------------|--------------|-------------------------|-------|
B|--------------------|--------------|-------------------------|-------|
G|--------------------|-7\-5---------|-------------------------|-------|
D|--------------------|-7\-5--5------|-5-----5-----0----5--2---|-------|
A|--------------------|-5\-3--3-3-3--|-3-3-3-3-3-3-0--2-5--2---|-----2-|
E|-0-0-0-0-0-0-0-0-0--|--------------|---------------------0---|-0-0-0-|



E|--------------------------------------------------|-----------------|
B|-------------------------------------------------*|-----------------|
G|--------------------------------------------------|-----------------|
D|---------------------------------------------7-7--|-----------7--7--|
A|--2-2-2---2-2-2--2-2-2--2-2-2--2-2-2--2-2-2--5-5-*|-----------5--5--|
E|--0-0-0---0-0-0--0-0-0--0-0-0--0-0-0--0-0-0-------|-0--0-0-0--------|



E|---------|-----------|-----------|----------------------------|--------|
B|---------|-----------|-----------|*---------------------------|--------|
G|-7\5-----|-5-----5-5/|-7---------|----------------------------|--------|
D|-7\5-----|-5-----5-5/|-7---------|----------------------------|--------|
A|-5\3-----|-3-----3-3/|-5---------|*----------7--------{7}b8--r|----{3}~|
E|---------|-----------|------12\--|--0--0--0-----0--0----------|-0------|

                                                           Verse 1:

E|------|---------------|----------------------------------|----------|
B|------|---------------|---------------------------------*|----------|
G|------|---------------|----------------------------------|----------|
D|------|---------------|----------------------------------|----------|
A|---2--|-----------{7}~|-----------{7}b8--r---{3}~-5--5\-*|-------7~-|
E|------|--0--0--0------|--0--0--0----------0--------------|-0-0-0----|



E|--------------------|----------------|-------------|--------------------|
B|--------------------|----------------|-------------|--------------------|
G|--------------------|----------------|-------------|--------------------|
D|--------------------|----------------|-------------|-------{2}~-----{2}~|
A|-----5h7p5---{3}~-2-|-------7------7-|---{3}~-2\---|-0-0-0------0-0-----|
E|-0-0-------0--------|-0-0-0----0-0---|-0-----------|--------------------|



E|--------------|------------------|---------------------------|-------|
B|--------------|------------------|---------------------------|-------|
G|--------------|------------------|---------------------------|-------|
D|--------------|-------{2}~-----2-|---------------------------|-------|
A|----0-3---2\--|-0-0-0------0-0---|-0-{3}~-5\------{7}~-----7-|---{3}~|
E|--------------|------------------|----------0-0-0------0-0---|-0-----|



E|-------|------------------------------|-------------------------------|
B|-------|------------------------------|-------------------------------|
G|-------|------------------------------|-------------------------------|
D|-------|------------------------------|-7------7--8--------7--------7-|
A|---2\--|-------{7}~-----7~---{3}~--5--|-5--5-5-5--5--5-5-5-5--5-5-5-5-|
E|-------|-0-0-0------0-0----0----------|-------------------------------|



E|----------------|----------------------------|---------------|
B|----------------|----------------------------|---------------|
G|----------------|----------------------------|-4--4--4---4---|
D|------7--8---7\-|-4------4--5---------4------|-4--4--4---4---|
A|--5-5-5--5-5-5\-|-2--2-2-2--2--2-2-2--2--2-2-|-2--2--2---2---|
E|----------------|----------------------------|---------------|



E|---------------------|-------------------------------------------|
B|---------------------|-------------------------------------------|
G|---------------------|-----------------------------4--4--4---4---|
D|---7-----7--8-----7\-|-4------4--5---------4-------4--4--4---4---|
A|5--5-5-5-5--5--5--5\-|-2--2-2-2--2--2-2-2--2--2-2--2--2--2---2---|
E|---------------------|-------------------------------------------|

                                               Let ring

E|-----------|---------------------------|-------------------------------|
B|-----------|---------------------------|-------------------------------|
G|9\-7-------|---------------------------|-------7--4--------------------|
D|9\-7-------|---------------------------|-0--2/-5--2--------------------|
A|7\-5-------|---------------------------|-0--2/-5--2--------------------|
E|-------0-0-|-0--0-0-0--0-0-0--0-0-0--0-|-------------0-0-0--0-0-0--0-0-|



E|----------------------|--------------|---------------------------|
B|----------------------|--------------|---------------------------|
G|----------------------|-7--5---------|---------------------------|
D|----------------------|-7--5---------|---------------0--2--5--2--|
A|----------------------|-5--3--3--3-3-|-3--3-3-3--2p0-0--2--5--2--|
E|-0--0-0-0--0-0-0--0-0-|--------------|------------------------0--|



E|---------------------------|----------------------------|--------------|
B|---------------------------|----------------------------|--------------|
G|---------------------------|----------------------------|--9\-7---7----|
D|---------------------------|---------------2------0--0--|--9\-7---7----|
A|-------2--2-2-2--2--2--2-2-|-2--2-2-2--2-2-2------0--0--|--7\-5---5----|
E|-0-0-0-0--0-0-0--0--0--0-0-|-0--0-0-0--0-0----0-0-------|------------0-|



E|-------|-----------------------------|------------------------|------|
B|-------|-----------------------------|------------------------|------|
G|-------|-----------------------------|-7\-4-------------------|------|
D|-------|-----------------------------|-5\-2--5--2-------------|------|
A|-------|-----------------------------|-5\-2--5--2-------------|------|
E|--0-0--|-0--0-0-0--0-0-0--0-0-0--0-0-|----------0--0-0-0--0-0-|-0--0-|

                                         pick slide

E|---------------------|---------|-------------------|-----------------|
B|---------------------|---------|-------------------|-----------------|
G|------7-7-7---5-5----|-5---7-7-|-7-----------------|-----------------|
D|------7-7-7---5-5----|-5---7-7-|-7---------x\------|-----------------|
A|------5-5-5---3-3----|-3---5-5-|-5---------x\------|----------{7}~---|
E|-0-0-----------------|---------|---------------10\-|-0--0--0-------0-|



E|----------|------------|--------------------------|-------------|
B|----------|------------|--------------------------|------------*|
G|----------|------------|--------------------------|-------------|
D|----------|------------|--------------------------|-------------|
A|-----{7}~-|----{3}~--2-|----------{7}~-------{7}~-|-----3---5--*|
E|--0-------|-0----------|-0--0--0-------0--0-------|--0----------|



E|----------|------------|-----------------|-----------------------------|
B|----------|------------|-----------------|-----------------------------|
G|-9--9--9--|-9--9-9-9-9-|-7--7/-9---------|-----------------------------|
D|-9--9--9--|-9--9-9-9-9-|-7--7/-9---------|-----------------------------|
A|-7--7--7--|-7--7-7-7-7-|-5--5/-7---------|-----------------------------|
E|----------|------------|----------0--0-0-|-0--0-0-0--0-0-0--0-0-0--0-0-|



E|----------|------------|------------------|------------------------|
B|----------|------------|------------------|------------------------|
G|-9--9--9--|-9--9-9-9-9-|-7---7/-9---------|------------------------|
D|-9--9--9--|-9--9-9-9-9-|-7---7/-9---------|------------------------|
A|-7--7--7--|-7--7-7-7-7-|-5---5/-7---------|------------------------|
E|----------|------------|-----------0--0-0-|-0--0-0-0--0-0-0--0-0-0-|

                                 Guitar solo   hold bend w/ vib. bar

E|-------------|--------|----------|-12-12b14-12b14---(12)---------|----|
B|-------------|--------|----------|----15b17-15b17---(15)---17p12-|----|
G|-------------|--------|--x-------|-------------------------------|-12h|
D|-------------|--------|--x\------|-------------------------------|----|
A|-------------|--------|---\--x\--|-------------------------------|----|
E|--0-0-0--0-0-|--------|------x\--|-------------------------------|----|



E|-------------14-15-19-17-15-20b22-----17--19--17-17--15-----------------|
B|-------15h17---------------------------------------------19p17-19p17-19-|
G|-14h16------------------------------------------------------------------|
D|------------------------------------------------------------------------|
A|------------------------------------------------------------------------|
E|------------------------------------------------------------------------|



E|--------------20p17-19p17----17-------|-------------------------------|
B|------r-19-17-------------20----20-19-|--17----17---------------------|
G|--------------------------------------|-----19----19-17-16-17~--17p16-|
D|--------------------------------------|-------------------------------|
A|--------------------------------------|-------------------------------|
E|--------------------------------------|-------------------------------|



E|-------------|--------------------------------------------------------|
B|-------17----|--16-17-------16-17-------17-16-17-16-16h17-16h17p16-17-|
G|-16h17-------|--------16-17-------16-17-------------------------------|
D|-------------|--------------------------------------------------------|
A|-------------|--------------------------------------------------------|
E|-------------|--------------------------------------------------------|



E|--------------|-------------------------------------------------------|
B|-16-17-17-16--|-17-16-17-16-17----16-17-------------------------------|
G|--------------|----------------16-------17-16-17-16-17-16-16-16-16----|
D|--------------|----------------------------------------------------17-|
A|--------------|-------------------------------------------------------|
E|--------------|-------------------------------------------------------|



E|-----------|-------------------------------------------------------|
B|-----------|-------------------------------------------------------|
G|-16-16-16--|---16--------------------------------------------------|
D|-----------|------17-16-17-16-17-16-17-14~-13h14h15h14h13h14h15h14-|
A|-----------|-------------------------------------------------------|
E|-----------|-------------------------------------------------------|



E|-15--12-------15--12-------15--|-12-------15--12h15p12-15--14h12-14-|
B|--------15-12--------15-12-----|----15-12---------------------------|
G|-------------------------------|------------------------------------|
D|-------------------------------|------------------------------------|
A|-------------------------------|------------------------------------|
E|-------------------------------|------------------------------------|



E|----14--12------12-------|------------------|-------------------------
B|------------15-----15p12-|------------------|-------------------------
G|-------------------------|--14--r---(14)\---|-------------------------
D|-------------------------|------------------|----------12----12-13-14-
A|-------------------------|------------------|-14-12-14----14----------
E|-------------------------|------------------|-------------------------





E|-------------------------------------|-------------------------------|
B|-------------------------------------|-------------17-19-17-17-19-20-|
G|----------------14-16-17-17-14-16-17-|-19-16-17-19-------------------|
D|-16-17-14-16-17----------------------|-------------------------------|
A|-------------------------------------|-------------------------------|
E|-------------------------------------|-------------------------------|



E|-17-------17-19-20-20-19-17-19-19-22-20-19-20-|-20-19-17-17----------|
B|----19p17-------------------------------------|-------------20-19-20-|
G|----------------------------------------------|----------------------|
D|----------------------------------------------|----------------------|
A|----------------------------------------------|----------------------|
E|----------------------------------------------|----------------------|



E|----------------------------------------|----------------------------|
B|-19-17-20-20-19-17-15-------------------|----------------------------|
G|----------------------17-19-16-19-17-16-|-14-------17-16-14----------|
D|----------------------------------------|----17-16----------14~-(14)\|
A|----------------------------------------|----------------------------|
E|----------------------------------------|----------------------------|



E|-2p0-0-0-3-0-0-0-5p0-0-0-7p0-0-0-|-8p0-0-0-7p0-0-0-5p0-0h2-2h3p2-0-|
B|---------------------------------|---------------------------------|
G|---------------------------------|---------------------------------|
D|---------------------------------|---------------------------------|
A|---------------------------------|---------------------------------|
E|---------------------------------|---------------------------------|



E|-2p0-0-0-3p0-0-0-5p0-0-0-7p0-0-0-8p0-0-0-8/10-------------------------|
B|----------------------------------------------13p12p10----12p10-------|
G|-------------------------------------------------------12-------12p11p|
D|----------------------------------------------------------------------|
A|----------------------------------------------------------------------|
E|----------------------------------------------------------------------|



E|--------|-----------------/--15-|-14p12-------------------------------|
B|--------|-----------------------|-------15p13p12-13-13p12----------13~|
G|-9-12-9-|--11b13----------------|-------------------------14-12-11----|
D|--------|-----------------------|-------------------------------------|
A|--------|-----------------------|-------------------------------------|
E|--------|-----------------------|-------------------------------------|



E-|--------------------------------------------|------------------16-19-|
B-|---(13)\------------------------------------|------15-10---/17-------|
G-|--------------------------------------13-16-|--/15-------------------|
D-|--------------------------12-15---/14-------|------------------------|
A-|--------------11-14---/13-------------------|------------------------|
E-|----------/12-------------------------------|------------------------|



E|-19p16-19-19h22-|-(22)--------------------------|---------------------|
B|----------------|-------------------------------|---------------------|
G|----------------|-------------------------------|---------------------|
D|----------------|---7-------7--8---------7------|---7------7--8-----7\|
A|----------------|---5---5-5-5--5--5-5-5--5--5-5-|-5-5--5-5-5--5--5--5\|
E|----------------|-------------------------------|---------------------|



E|-----------------------------|--------------------|-------------------|
B|-----------------------------|--------------------|-------------------|
G|-----------------------------|--------------------|-------------------|
D|----4------4--5---------4----|------4--4----------|--7------7--8------|
A|----2--2-2-2--2--2-2-2--2--2-|-2-2--2--2--2--{2}~-|--5--5-5-5--5--5-5-|
E|-----------------------------|--------------------|-------------------|



E|-----------|----------------------|-------------------------|--------|
B|-----------|----------------------|-------------------------|--------|
G|-----------|----------------------|-----------------------4-|-4------|
D|----7------|----7------7--8-----7-|-4--------4--5---------4-|-4------|
A|-5--5--5-5-|-5--5--5-5-5--5--5--5-|-2--2-2-2-2--2--2-2-2--2-|-2------|
E|-----------|----------------------|-------------------------|--------|

             Outro Chorus

E|---|---------|---------------------------|--------------------------|
B|---|---------|---------------------------|--------------------------|
G|---|-7-------|-9\-7------7---------7-----|-----7---------7----------|
D|---|-7---(0)-|-9\-7------7---------7-----|-----7---------7----------|
A|---|-5-------|-7\-5------5---------5-----|-----5---------5------1/--|
E|---|---------|-------0-0---0-0-0-0---0-0-|-0-0---0-0-0-0----0-0-----|



E|---------------------------|-------------------------------|---12p8-|
B|---------------------------|------------------------------*|--------|
G|-9\-7------7---------7-----|-----7-------------------------|--------|
D|-9\-7------7---------7-----|-----7-------------------------|--------|
A|-7\-5------5---------5-----|-----5---------1p0----1p0-5-5-*|--------|
E|-------0-0---0-0-0-0---0-0-|-0-0---0-0-0-0-----3-----------|--------|



E|--12p8--10p8----8--|---------8------------8-------------------|-------|
B|-------------12----|-12p10p8---12p10p8------12p10p8\7-10p7----|-------|
G|-------------------|-------------------11------------------9--|-r-(9)\|
D|-------------------|------------------------------------------|-------|
A|-------------------|------------------------------------------|-------|
E|-------------------|------------------------------------------|-------|



E|-------|--------------------|-----------------|---------------|
B|-----3-|---{3}b5---r-3~-----|-----------------|---------------|
G|-------|--------------------|-------0---2/-4--|--0------------|
D|-------|--------------------|-----------------|-----2--0--2~--|
A|-------|--------------------|-----------------|---------------|
E|---x---|--------------------|-----------------|---------------|



E|----------------------------------------|----------------------------|
B|----------------------------------------|----------------------------|
G|----------------------------------------|-------------------------12-|
D|-------------------------------10-12-14-|-14-12-10-10-12-14-14-16----|
A|-------------------10-14-12-10----------|----------------------------|
E|----14-12-10-12-14----------------------|----------------------------|



E|----------------------------17-15-14-|--------20b21--r-b1-r--|---10p-|
B|-------------------15-17-19----------|-17-14-----------------|-------|
G|-------------12-17-------------------|-----------------------|-------|
D|-16-14-12-14-------------------------|-----------------------|-------|
A|-------------------------------------|-----------------------|-------|
E|-------------------------------------|-----------------------|-------|



E|-6-5---6--|---{6}~-------|--6-------12----|-12------------------------|
B|-----6----|--------------|----5--------15-|----15b17--r15b2-----------|
G|----------|--------------|----------------|----14b16----------14b16--r|
D|----------|--------------|----------------|---------------------------|
A|----------|--------------|----------------|---------------------------|
E|----------|--------------|----------------|---------------------------|



E|---------|-----------------|-------------------------------------------|
B|---------|-----------------|-------------------------------------------|
G|--12-----|--12-------------|-12----14----14----16-17-16----14----12----|
D|------14-|-----14-12-{14}~-|----14----14----14-14-14----14----14----14-|
A|---------|-----------------|-------------------------------------------|
E|---------|-----------------|-------------------------------------------|



E|-------|--------------------|------------------------------------------|
B|-------|--------------------|------------------------------------------|
G|-14----|-12~----------------|---------11-11-11-11--9-------7-----------|
D|----14-|-----14-12-14-14p12-|-9-9-9-9--9--9--9--9-(9)-9-9-(9)-9-9-9----|
A|-------|--------------------|------------------------------------------|
E|-------|--------------------|------------------------------------------|



E|-0----------|-----------|-----0-0--0-0/2-5-2-0-2-5p0-5p7-|-5-0--12-----|
B|-0----------|-----------|-3/5----------------------------|----------12-|
G|----2b4-----|--r2~--0---|--------------------------------|-------------|
D|------------|---------2-|--------------------------------|-------------|
A|------------|-----------|--------------------------------|-------------|
E|------------|-----------|--------------------------------|-------------|



E|------------|---------------------------------------------------------|
B|--12b13-----|-13h12-13h12-13p12-13p8-13p8-13p8-13h8h12-13p12-13p12-13p|
G|------------|---------------------------------------------------------|
D|------------|---------------------------------------------------------|
A|------------|---------------------------------------------------------|
E|------------|---------------------------------------------------------|



E|----------------------------------------------------------|----------|
B|-8-13p8-13p--7-8-10--8p7-10-7-10-8-7-12p8-7-5---5---------|---8b10--r|
G|----------------------------------------------7-----/9-12-|-6--------|
D|----------------------------------------------------------|----------|
A|----------------------------------------------------------|----------|
E|----------------------------------------------------------|----------|



E|----------|-----------------12p7-12p7----|------------|----------|
B|--b2(8)\--|------*-------12-----------11-|-10---------|----------|
G|----------|------------9-----------------|-----12p11--|-10----9~-|
D|----------|----------9-------------------|------------|----12----|
A|----------|------*-7---------------------|------------|----------|
E|----------|------------------------------|------------|----------|



E|---------------|
B|--------------*|
G|-(9)---(9)\-3--|
D|---------------|
A|--------------*|
E|---------------|


LYRICS:

A brief encounter
Like wind through the trees
It came so suddenly
But then it was gone
Like it had never been
How could I have ever seen
A lost heart
Will take your soul

How could I have known
How could I have known
As she took me in her arms
And brought me to an end
With the kiss of death
The kiss of death

She promised paradise
As she lied upon her bed
Like a fallen angel
With the devil's charm
She promised paradise
With the kiss of death

I tried to stop
As she held out her hand
But the fire was burning inside
She knew what i wanted
She gave it and more
But now I must pay the price
We were strangers
Passing in the night

How could I have known
How could I have known
As she took me in her arms
And brought me to an end
With the kiss of death
The kiss of death

She promised paradise
As she lied upon her bed
Like a fallen angel
With the devil's charm
She promised paradise
With the kiss of death

As she took me in her arms
I felt the devil's charm
Suddenly I see
The final destiny
With the kiss of death
The kiss of death

She promised paradise
As she lied upon her bed
Like a fallen angel
With the devil's charm
She promised paradise
With the kiss of death

With the kiss of death
Tap to rate this tab
 
# A B C D E F G H I J K L M N O P Q R S T U V W X Y Z