Song name
# A B C D E F G H I J K L M N O P Q R S T U V W X Y Z

Dokken - Dont Close Your Eyes tab

Song:Don't Close Your Eyes
Written By:G.Lynch,D.Dokken,J.Pilson
Artist:Dokken
Album:Tooth And Nail
Tuning:Half Step Down

Legend
------
 
h  = hammer-on
p  = pull-off
b  = bend
r  = bend release
/  = slide up/down
<5> = natural harmonic
[5] = artifical harmonic
~  = vibrato
tr = trill

       W/ Riff 1 3rd time thru                                 Ending 1

Eb-|-------------------------------------------------------------------|
Bb-|*------------------------------------------------------------------|
Gb-|----------------------4/5\4~----------------------4/5\4----4h2-----|
Db-|----------------------4/5\4~----------------------4/5\4----4h2-4h2-|
Ab-|*---------4-----4---------------------4-----4------------------4h2-|
Eb-|--0h2-2-2-2-2-2-2-2-2---------0h2-2-2-2-2-2-2-2-2------------------|

         Ending 2      Riff 1

Eb|---|--------------|------------------------------------------------|
Bb|--*|-------------*|--------------------------------------------2---|
Gb|---|--2-1---------|----4b5--r2-4b5-----2--------4b5--r2-4b5------4-|
Db|---|--2-2---------|----------------------4-2-4~--------------------|
Ab|--*|----------4--*|------------------------------------------------|
Eb|---|------0-0-2---|------------------------------------------------|



Eb|----------------------------------------------------------5----------|
Bb|----------------------------------------------------2--------2h5-2---|
Gb|-2-4b5--r{2}~-4b5--r2-4b5-----2--------4b5--r2-4b5----4-2----------5-|
Db|--------------------------------4-2-4~-------------------------------|
Ab|---------------------------------------------------------------------|
Eb|---------------------------------------------------------------------|

                               W/ Riff 2

Eb|---------------------------|-------------------|-------------------|
Bb|-2h5-2---2h5-2-------------|-------------------|-------------------|
Gb|-------5-------5-2h4-2-----|---------2---1---2-|---2-----2---1-----|
Db|-----------------------2h4-|---2---------------|---0-4---------4h2-|
Ab|---------------------------|-4-0-2-------------|-4---2-------------|
Eb|---------------------------|-2---0-0---0---0---|-2-----0---0-------|



Eb|------------|--------------------------------------------------------|
Bb|------------|--------------------------------------------------------|
Gb|------------|-----2~-1~----2---1---2----6~b-{4}~---2---1---------2~--|
Db|-7~--6~--4~-|--4~--------2---2---2---4~----------2---2---4-2--4~-----|
Ab|-5~--4~--2~-|--------------------------------------------------------|
Eb|------------|--------------------------------------------------------|

                                 Verse section             W/ verse section

Eb|--------------------------------------------|-------------|----------|
Bb|--------------------------------------------|-------------|----------|
Gb|-1~---2---1---2--7~-6~-4h6-4~---2--1--4-----|-2--1--4--6--|----------|
Db|----2---2---2-------------------2--2--2--4--|-2--2--2--4--|----------|
Ab|-----------------------------------------4--|-------------|----------|
Eb|--------------------------------------------|-------------|--0h2-2-2-|

                                   Riff 3    Solo

Eb|-----------------------|-----|------|-------------------------------|
Bb|-----------------------|-----|--17~-|-----17--17~-------------------|
Gb|-----------------------|-----|--18~-|-----18-------4b5--r2-4b5--4-2-|
Db|-----------------------|-----|------|-------------------------------|
Ab|-----------------------|--4--|------|-------------------------------|
Eb|--2-2-2-2--2-2-2-2-2-2-|--2--|------|-------------------------------|



Eb|--------------------------------------------------------------------|
Bb|---------5b6--(6)-(6)-(6)-(6)-(6)--r-5~-----------------------------|
Gb|-----------------------------------------16b17--r14-16b17---16b17--r|
Db|-4-2-4~-------------------------------------------------------------|
Ab|--------------------------------------------------------------------|
Eb|--------------------------------------------------------------------|



Eb|--------------------------------------------------------------------|
Bb|-------------------------------------14--------------------14h17----|
Gb|-14-16b17---{16}----14~-----14-16-17----17-16-14--14h16-17-------14h|
Db|-------------------------16-----------------------------------------|
Ab|--------------------------------------------------------------------|
Eb|--------------------------------------------------------------------|



Eb|-----------------------------------------------------16h17-19-------|
Bb|-------14h17----------14h17----------14h17--16h17-19----------16h17-|
Gb|-16-17-------14h16-17-------14h16-17--------------------------------|
Db|--------------------------------------------------------------------|
Ab|--------------------------------------------------------------------|
Eb|--------------------------------------------------------------------|



Eb|----16h17-19----------16h17-19-22b24--22-22-22-22~--|
Bb|-19----------16h17-19-------------------------------|
Gb|----------------------------------------------------|
Db|----------------------------------------------------|
Ab|----------------------------------------------------|
Eb|----------------------------------------------------|


LYRICS:

Somebody's watching me, is it just a crazy dream
Is it my memory, playing tricks on me
Out in the streets in the heat of the city
Here comes the night
Sky's turning grey and black
You knew that you were right
     
Don't close your eyes
Don't close your eyes or I'll be there
Don't close your eyes
Don't close your eyes or I'll be there
     
Just a shadow in the dark, you've seen this face before
Is it just a fantasy, is he coming back for more
Out in the alleyways, there is no second chance
Moving up behind you, you've lost the game at last
     
Don't close your eyes
Don't close your eyes or I'll be there
Don't close your eyes
Don't close your eyes or I'll be there
     
Somebody's watching me, is it just a crazy dream
Is it my memory, playing tricks on me
Out in the alleyways, there is no second chance
Moving up behind you, you've lost the game at last
     
Don't close your eyes



Tap to rate this tab
# A B C D E F G H I J K L M N O P Q R S T U V W X Y Z