Song name
# A B C D E F G H I J K L M N O P Q R S T U V W X Y Z

Dokken - Paris Is Burnin tab

Words by Don Dokken Music by Don Dokken & George Lynch
Arranged by Dokken

Gtr I (Eb Ab Db Gb Bb Eb) - 'Lead Guitar - George Lynch'
Gtr II (Eb Ab Db Gb Bb Eb) - 'Rhtyhm Guitar - Don Dokken'

 Intro Solo 
  Freely Q=120
  N.C.
 4/4
  Gtr I
|-----------------------------------------|
|-----------------------------------------|
|-----------------------------------------|
|-----------------------------------------|
|-0h7p5p0h7p5p0h7p5p0h7p5p0h7p5p0h7p5-----|
|-------------------------------------x\--|


|-------------------------------------------------|
|-------------------------------------------------|
|-------------------------------------------------|
|-------------------------------------------------|
|-0h7p5p0h7p5p0h7p5p0h7p5p0h7p5p0h7p5p0h7p5p0h7p5-|
|-------------------------------------------------|


  N.C.
         ~~~PM|          ~~~
|-----------------------------------|
|-----------------------------------|
|-----------------------------------|
|-------[7]-6-6-7p5p4p0-[7]---------|
|-0h7p5---------------------5h7p5-7-|
|-----------------------------------|


         T      T      T      T      T      T      T
|---------------------------------------------------------|
|---------------------------------------------------------|
|---------------------------------------------------------|
|---------------------------------------------------------|
|-5h7p5-12p5h7-12p5h7-12p5h7-12p5h7-12p5h7-12p5h7-12p5h7--|
|---------------------------------------------------------|


  N.C.
   T      T      T      T      T      T      T      T
|---------------------------------------------------------|
|---------------------------------------------------------|
|-----------------------------12p7h9-12p7h9-12p7h9-12p7h9-|
|-12p7h9-12p7h9-12p7h9-12p7h9-----------------------------|
|---------------------------------------------------------|
|---------------------------------------------------------|


   T      T      T      T      T      T
|------------------------------------------------|
|------------------------------------------------|
|-12p7h9-12p7h9-12p7h9-12p7h9-12p7h9-12p7h9p7s4--|
|------------------------------------------------|
|------------------------------------------------|
|------------------------------------------------|


  N.C.
|------9h10h12-9h10----9-10-12-9h10----9-10-12-9h10----9-10-12-|
|-8s10--------------12--------------12--------------12---------|
|--------------------------------------------------------------|
|--------------------------------------------------------------|
|--------------------------------------------------------------|
|--------------------------------------------------------------|


|-----------------12-(12)---------------------------------12------------------------12---------|
|-/14-12-10-12-10---------15-12-15-12-15-15b17==(15)r(15)----15-12-15b17==(15)r(15)----15-12---|
|----------------------------------------------------------------------------------------------|
|----------------------------------------------------------------------------------------------|
|----------------------------------------------------------------------------------------------|
|----------------------------------------------------------------------------------------------|


  N.C.
|---------------------------------------------------------------------|
|------------------15-12----------------------------------------------|
|-14b16==(14)r(14)-------14-14b16==(14)-(14)r\------------------------|
|---------------------------------------------------------------------|
|----------------------------------------------x-12b14==(12)r-10-12\--|
|---------------------------------------------------------------------|


  PM--|  T               T               T
|-------14s16s14s16p7p5-14s16s14s16p3h5-15s16s15s16p7p5--|
|--------------------------------------------------------|
|--------------------------------------------------------|
|--------------------------------------------------------|
|-x-x-x--------------------------------------------------|
|--------------------------------------------------------|


  N.C.
   T               T         T                 T
|-15s16s15s16p7p5-16s19p7p5-17s19s17s19p9p7h9-17s19s17s19p9p7h9-|
|---------------------------------------------------------------|
|---------------------------------------------------------------|
|---------------------------------------------------------------|
|---------------------------------------------------------------|
|---------------------------------------------------------------|


   T
|-17s19s17s19------------12-------15b19==(15)--(15)----|
|---------------------------15-12----------------------|
|-------------14b16-(14)-------------------------------|
|------------------------------------------------------|
|------------------------------------------------------|
|------------------------------------------------------|


  N.C.
                                                 \3
                ~~
|-(15)r--------------|-------------------------------------|
|--------------------|-------------------------------------|
|--------------12----|-------------------------------------|
|--------14-12-------|--7b9==(7)r(7)-5-7-(x)-(x)-----------|
|--------------------|---------------------------0--(0)----|
|--------------------|-------------------------------------|


  N.C.
                             \2.5____/                  \1/   \1/
                                                   ~~~~
|-----------|------------|-(15)----(15)-(15)-----(15)-(15)--(15)--(15)--------|
|-x----x----|-(x)--------|--15-----(15)-(15)b17==(15)-(15)--(15)--(15)r-------|
|-----------|------------|----------------------------------------------x\----|
|-----------|------------|----------------------------------------------------|
|-----------|------------|----------------------------------------------------|
|-----------|------------|----------------------------------------------------|


  N.C.
|-19----------19-19s17-------------17s15-------------15s13-------------12s|
|----17-17-15----------15-------15-------13-------13-------10-------10----|
|-------------------------------------------------------------------------|
|----------------------------17----------------15----------------12-------|
|-------------------------17----------------15----------------12----------|
|-------------------------------------------------------------------------|


|-10-----------10s8---------7s5---------5s3---------2p==|
|----8-------8------5-----5-----3-----3-----1-----1-----|
|-------------------------------------------------------|
|---------10------------7-----------5-----------3-------|
|------10-------------7-----------5-----------3---------|
|-------------------------------------------------------|


  N.C.                                        A5
|-0---------2p0---------2p0---------2p0-----|-----------------------|
|---0-----0-----0-----0-----0-----0-----x-x-|-----------------------|
|-------------------------------------------|-2---------------------|
|-------2-----------2-----------2-----------|-2---------------------|
|-----2-----------2-----------2-------------|-0------5p0h5p0h5p3p0--|
|-------------------------------------------|-----------------------|


  N.C.
|-------------------------------------------------|
|-------------------------------------------------|
|-------------------------------------------------|
|-------------------------------------------------|
|-5p3p0h5p3p0h5p3p0h5p3p0h5p3p0h5p3p0h5p3p0h5p3p0-|
|-------------------------------------------------|


  N.C.
|-------------------------------------------|
|-------------------------------------------|
|-------------------------------------------|
|-------------------------------------------|
|-------------------------x\-------5h7h8s10-|
|-x-x-x-x-x-x-x-x-x-x-x-x----5h7h8----------|


|------------------5-----10--(10)b13-(10)-(10)-(10)---|-----------------------------|
|--------------------8-5------------------------------|--------------8h10-12p10p8---|
|-7b9==(7)r(7)-5--------------------------------------|-------7h9h11----------------|
|----------------7------------------------------------|-----------------------------|
|-----------------------------------------------------|-----------------------------|
|-----------------------------------------------------|-----------------------------|


  N.C.
|------------------------------------------------------------|
|-12p10p8-12p10p8-13/-------------13p12p10----------------15s|
|---------------------11-12h14-11----------12-11-12p11-------|
|------------------------------------------------------14----|
|------------------------------------------------------------|
|------------------------------------------------------------|


|----------------------------------------------12-------------------12-13-12-|
|-12-------------------12-13-15-12----12-13-15----12-------12-13-15----------|
|-------------11h12h14-------------14----------------14-14-------------------|
|----11h12h14----------------------------------------------------------------|
|----------------------------------------------------------------------------|
|----------------------------------------------------------------------------|


  N.C.
|----------12h13-------------13-12-------13-12-------15-------17----|
|-13-12----------15-12-13----------15-13-------15-13-------17----17-|
|-------14----------------14----------------------------17----------|
|-------------------------------------------------------------------|
|-------------------------------------------------------------------|
|-------------------------------------------------------------------|


  N.C.
|-------------------------17-19-------------19--------------17-19-21--17----------17-19-21-|
|-------17----------17-20-------20-17-19-20-----20-17-19-20--------------17-19-21----------|
|-17-19----17-17-19------------------------------------------------------------------------|
|------------------------------------------------------------------------------------------|
|------------------------------------------------------------------------------------------|
|------------------------------------------------------------------------------------------|


  N.C.
|----------17-19-21----------17-19-21----------17-19-21----------17-19-21-|
|-17-19-21----------17-19-21----------17-19-21----------17-19-21----------|
|-------------------------------------------------------------------------|
|-------------------------------------------------------------------------|
|-------------------------------------------------------------------------|
|-------------------------------------------------------------------------|


  N.C.
|----------17-19-21----------17-19-21----------17-19-21-17-------17-19-21-|
|-17-19-21----------19-19-21----------17-19-21-------------19-21----------|
|-------------------------------------------------------------------------|
|-------------------------------------------------------------------------|
|-------------------------------------------------------------------------|
|-------------------------------------------------------------------------|


  N.C.
|-17-------17-19-21-17-------17-19-21----------17-19-21----------17-19-21-|
|----19-21-------------19-21----------17-19-21----------17-19-21----------|
|-------------------------------------------------------------------------|
|-------------------------------------------------------------------------|
|-------------------------------------------------------------------------|
|-------------------------------------------------------------------------|


  N.C.
|----------17-19-21----------17-19-21----------17-19-21----------17-19-21-|
|-17-19-21----------17-19-21----------17-19-21----------17-19-21----------|
|-------------------------------------------------------------------------|
|-------------------------------------------------------------------------|
|-------------------------------------------------------------------------|
|-------------------------------------------------------------------------|


  N.C.                                           E5
                                                            \3
|-21-21-21-21-21-21-21-21-21-21-21-21-21-------|----------|-------||
|----------------------------------------------|----------|-------||
|----------------------------------------------|----------|-------||
|----------------------------------------------|-2--------|-------||
|----------------------------------------x\----|-2--------|-------||
|----------------------------------------------|-0--------|-0-----||


 Intro
  Fast Rock Q=205
  N.C.
   |                \2.5____________________________________
|---------------|----------------|--------------|----------|
|-----------<5>-|-(<5>)----------|-(<5>)--------|-(<5>)----|
|---------------|----------------|--------------|----------|
|---------------|----------------|--------------|----------|
|---------------|----------------|--------------|----------|
|-(0)-----------|----------------|--------------|----------|


  N.C.
    |
|--------------|---------|--------------|-----------|
|-(<5>)--------|---------|-x-x-x-x-x----|---xS=x----|
|--------------|---------|--------------|-----------|
|--------------|---------|--------------|-----------|
|--------------|---------|--------------|-----------|
|--------------|---------|--------------|-----------|


  N.C.
|-----------|---------|---------|-----------||
|--xSx------|---------|---------|-------x\--||
|-----------|---------|---------|-----------||
|-----------|---------|---------|-----------||
|-----------|---------|---------|-----------||
|-----------|---------|---------|-----------||


  D5  E5                      C5    D5        A5    B5
  Gtr I
                  ~~~
|--------------|------------|---------------|---------------|
|--------------|------------|---------------|---------------|
|--------------|------------|---------------|---------------|
|-7---9-(9)----|-(9)--------|---------------|---------------|
|-5---7-(7)----|-(7)--------|-(7)-----------|-(7)-----------|
|--------------|------------|---------------|---------------|
|
| Gtr II
|--------------|------------|---------------|---------------|
|--------------|------------|---------------|---------------|
|--------------|------------|---------------|---------------|
|-7---9-(9)----|-(9)--------|--5----7-------|---------------|
|-5---7-(7)----|-(7)--------|--3----5---x-x-|--7----9-------|
|--------------|------------|---------------|--5----7---x-x-|


  D5  E5        N.C.
                   T       T       T       T
|-------------|----------------------------------|
|-------------|----------------------------------|
|-------------|----------------------------------|
|-------------|----------------------------------|
|-------------|-5p-7p5p2h5-7p5p2h5-7p5p2h5-7p5p2h|
|-------------|----------------------------------|
|
|         PM--------------------------------------
|-------------|----------------------------------|
|-------------|----------------------------------|
|-------------|----------------------------------|
|-7---9-------|----------------------------------|
|-5---7-------|----------------------------------|
|---------0-0-|-0----0---0---0---0---0---0---0---|


    T       T       T       T         T       T       T       T
|---------------------------------|---------------------------------|
|---------------------------------|---------------------------------|
|---------------------------------|---------------------------------|
|---------------------------------|---------------------------------|
|-5-7p5p2h5-7p5p2h5-7p5p2h5-7p5p2h|=5-7p5p2h5-7p5p2h5-7p5p2h5-7p5p2-|
|---------------------------------|---------------------------------|
|
|---------------------------------------------------------------|
|---------------------------------|---------------------------------|
|---------------------------------|---------------------------------|
|---------------------------------|---------------------------------|
|---------------------------------|---------------------------------|
|---------------------------------|---------------------------------|
|-0---0---0---0---0---0---0---0---|-0---0---0---0---0---0---0---0---|


  D5      E5                        C5    D5           A5    B5
             ~~~~~~~~~~~~
|------------------|--------------|------------------|------------------|
|------------------|--------------|------------------|------------------|
|------------------|--------------|------------------|------------------|
|-[5]s7------------|--------------|------------------|------------------|
|---------7-(7)----|-(7)----------|-(7)--------------|-(7)--------------|
|------------------|--------------|------------------|------------------|
|
|                             PM|                PM|                PM|
|------------------|--------------|------------------|------------------|
|------------------|--------------|------------------|------------------|
|------------------|--------------|------------------|------------------|
|-----7---9-(9)----|-(9)----------|--5----7-(7)------|------------------|
|-----5---7-(7)----|-(7)------x-x-|--3----5-(5)--x-x-|--7----9-(9)------|
|------------------|--------------|------------------|--5----7-(7)--x-x-|


  D5    E5                      N.C.
                                  \0.5/   \0.5/   \0.5/   \0.5/   \0.5/   \0.5/        \0.5/
|---------(10)----------10----|-(10)----(10)----(10)----(10)----(10)----(10)----(10)-(10)----|
|----------10---10b12==(10)---|-(10)----(10)----(10)----(10)----(10)----(10)----(10)-(10)----|
|----x\-----------------------|--------------------------------------------------------------|
|-----------------------------|--------------------------------------------------------------|
|-----------------------------|--------------------------------------------------------------|
|-----------------------------|--------------------------------------------------------------|
|
|                        PM-------------------------------------------------------------------
|-----------------------------|--------------------------------------------------------------|
|-----------------------------|--------------------------------------------------------------|
|-----------------------------|--------------------------------------------------------------|
|-7-----9---------------------|--------------------------------------------------------------|
|-5-----7---------------------|--------------------------------------------------------------|
|------------------------0--0-|---0-------0-------0-------0-------0-------0-------0----0-----|


    ~~~~~
|-(10)----------------|-------------------||
|-(10)r---------------|-------------------||
|---------------------|-------------------||
|---------------------|-------------------||
|---------------------|-------------------||
|---------------------|-12\---------------||
|
|---------------------------------------|
|---------------------|-------------------||
|---------------------|-------------------||
|---------------------|-------------------||
|---------------------|-------------------||
|---------------------|-------------------||
|---0---0-0-0-0-0-0-0-|--0--0-0-0-0-0-0-0-||


 Verse 1
  D5  E5                      C5  D5           D5  E5
  Gtrs I, II
                                         PM|              PM|
|--------------|------------|----------------|----------------|
|--------------|------------|----------------|----------------|
|--------------|------------|----------------|----------------|
|-7---9-(9)----|-(9)--------|-5---7-(7)------|-7---9-(9)------|
|-5---7-(7)----|-(7)--------|-3---5-(5)--x-x-|-5---7-(7)--x-x-|
|--------------|------------|----------------|----------------|


  Bm/D E5                 N.C.
  Gtr I
|-----------------------|-----------------------------------------|
|-------------<17>-<17>-|-<17>-<17>-<17>-<17>S<15>-<15>-<15>-<15>S|
|-----------------------|-----------------------------------------|
|-----------------------|-----------------------------------------|
|-----------------------|-----------------------------------------|
|---0----(0)------------|-----------------------------------------|
|
| Gtr II
|               PM-------------------------------------------------
|-----------------------|-----------------------------------------|
|-----------------------|-----------------------------------------|
|-----------------------|-----------------------------------------|
|-9----9-(9)------------|-----------------------------------------|
|-5----7-(7)------------|-----------------------------------------|
|---------------0----0--|---0----0----0----0----0----0----0----0--|


|-----------------------------------------|-----------------------------|
|-<13>-<13>-<13>--------------------------|-----------------------------|
|----------------<13>-<13>-<13>-----------|-----------------------------|
|-------------------------------<14>-<14>-|-<14>-<14>-<14>-<14>---------|
|-----------------------------------------|-----------------------------|
|-----------------------------------------|---------------------0-0-0-0-|
|
|---------------------------------------------------------------------|
|-----------------------------------------|-----------------------------|
|-----------------------------------------|-----------------------------|
|-----------------------------------------|-----------------------------|
|-----------------------------------------|-----------------------------|
|-----------------------------------------|-----------------------------|
|---0----0----0----0----0----0----0----0--|---0----0----0----0--0-0-0-0-|


  D5  E5                      C5  D5           A5  E5
|--------------|------------|----------------|----------------|
|--------------|------------|----------------|----------------|
|--------------|------------|----------------|----------------|
|--------------|------------|----------------|----------------|
|--------------|------------|----------------|----------------|
|-0------------|-(0)--------|----------------|----------------|
|
|                                        PM|              PM|
|--------------|------------|----------------|----------------|
|--------------|------------|----------------|----------------|
|--------------|------------|----------------|----------------|
|-7---9-(9)----|-(9)--------|-5---7-(7)------|-----9-(9)------|
|-5---7-(7)----|-(7)--------|-3---5-(5)--x-x-|-7---7-(7)--x-x-|
|--------------|------------|----------------|-5--------------|


  D5  E5                      C5            D5
|--------------|------------|-------------|------------||
|--------------|------------|-8---10---8--|-7---8---7--||
|--------------|------------|-7----7---7--|-7---7---7--||
|--------------|------------|-------------|------------||
|--------------|------------|-------------|------------||
|--------------|------------|-------------|------------||
|
|--------------|------------|-------------|------------||
|--------------|------------|-------------|------------||
|--------------|------------|-------------|------------||
|-7---9-(9)----|-(9)--------|-5-----------|-7----------||
|-5---7-(7)----|-(7)--------|-3-----------|-5----------||
|--------------|------------|-------------|------------||


 Chorus
  D5  E5                          C5            D5
|----------------|--------------|-------------|------------|
|-5------------5-|--8----7---5--|-8---10---8--|-7---8---7--|
|-4----------4---|--7----7---4--|-7----7---7--|-7---7---7--|
|----------------|--------------|-------------|------------|
|----------------|--------------|-------------|------------|
|----------------|--------------|-------------|------------|
|
|----------------|--------------|-------------|------------|
|----------------|--------------|-------------|------------|
|----------------|--------------|-------------|------------|
|-7---9-(9)------|-(9)----------|-5-----------|-7----------|
|-5---7-(7)------|-(7)----------|-3-----------|-5----------|
|----------------|--------------|-------------|------------|


  D5  E5                          C5            D5
|----------------|--------------|-------------|------------||
|-5------------5-|--8----7---5--|-8---10---8--|-7---8---7--||
|-4----------4---|--7----7---4--|-7----7---7--|-7---7---7--||
|----------------|--------------|-------------|------------||
|----------------|--------------|-------------|------------||
|----------------|--------------|-------------|------------||
|
|----------------|--------------|-------------|------------||
|----------------|--------------|-------------|------------||
|----------------|--------------|-------------|------------||
|-7---9-(9)------|-(9)----------|-5-----------|-7----------||
|-5---7-(7)------|-(7)----------|-3-----------|-5----------||
|----------------|--------------|-------------|------------||


  D5  E5                          C5         A5
|----------------|--------------|----------|------|
|-5------------5-|--8----7---5--|----------|------|
|-4----------4---|--7----7---4--|----------|------|
|----------------|--------------|----------|------|
|----------------|--------------|----------|------|
|----------------|--------------|----------|------|
|
|----------------|--------------|----------|------|
|----------------|--------------|----------|------|
|----------------|--------------|----------|------|
|-7---9-(9)------|-(9)----------|-5--------|------|
|-5---7-(7)------|-(7)----------|-3--------|-7----|
|----------------|--------------|----------|-5----|


  N.C.
                                                            \2.5
                                       ~~~
|-----------------|-----------------|-------------------|--------------------||
|-----------------|-----------------|-<5>---------------|-(<5>)--------------||
|-----------------|-----------------|-------------------|--------------------||
|-----------------|-----------------|-------------------|--------------------||
|-----------------|-----------------|-------------------|--------------------||
|-----------------|-----------------|-------------------|--------------------||
|
| PM-----------------------------------------------------------------|
|-----------------|-----------------|-------------------|--------------------||
|-----------------|-----------------|-------------------|--------------------||
|-----------------|-----------------|-------------------|--------------------||
|-----------------|-----------------|-------------------|--------------------||
|-----------------|-----------------|-------------------|--------------------||
|-7-7-7-7-7-7-7-7-|-7-7-7-7-7-7-7-7-|--7--7-7-7-7-7-7-7-|---7----7-7-7-x\----||


 Verse 2
  D5  E5                      C5  D5         A5  B5
  Gtrs I, II
|--------------|------------|--------------|--------------|
|--------------|------------|--------------|--------------|
|--------------|------------|--------------|--------------|
|-7---9-(9)----|-(9)--------|-5---7-(7)----|--------------|
|-5---7-(7)----|-(7)--------|-3---5-(5)----|-7---9-(9)----|
|--------------|------------|--------------|-5---7-(7)----|


  D5     E5           N.C.
  Gtr I
            ~~~~~~~~~~~~~~~
|-------------------|--------------------|
|-------------------|--------------------|
|-2b4======(2)------|-(2)r---------------|
|-------------------|--------------------|
|-------------------|--------------------|
|-------------------|--------------------|
|
| Gtr II
|               PM------------------------
|-------------------|--------------------|
|-------------------|--------------------|
|-------------------|--------------------|
|-7------9-(9)------|--------------------|
|-5------7-(7)------|--------------------|
|---------------0-0-|--0---0-0-0-0-0-0-0-|


            ~~~
|------------------------|-----------------|
|------------------------|-----------------|
|-2b4==(2)r(2)-----------|-----------------|
|----------------5-4-2---|-----------------|
|----------------------5-|-3-2-------------|
|------------------------|-----5-3-2-0-----|
|
|----------------------------------------|
|------------------------|-----------------|
|------------------------|-----------------|
|------------------------|-----------------|
|------------------------|-----------------|
|------------------------|-----------------|
|-0-----0---0--0-0-0-0-0-|-0-0-0-0-0-0-0-0-|


  D5  E5                      C5  D5         A5  B5
|--------------|------------|--------------|--------------|
|--------------|------------|--------------|--------------|
|--------------|------------|--------------|--------------|
|--------------|------------|--------------|--------------|
|-5---7-(7)----|-(7)--------|--------------|--------------|
|--------------|------------|--------------|--------------|
|
|--------------|------------|--------------|--------------|
|--------------|------------|--------------|--------------|
|--------------|------------|--------------|--------------|
|-7---9-(9)----|-(9)--------|-5---7-(7)----|--------------|
|-5---7-(7)----|-(7)--------|-3---5-(5)----|-7---9-(9)----|
|--------------|------------|--------------|-5---7-(7)----|


  Bm/D         E5        N.C.
                           TP
|----------------------|--------------------|---------------------------------------|
|-15b17===(15)---------|-(15)---------------|-(15)r(15)p14p12-14p12------12---------|
|----------------------|--------------------|-------------------------15----15p==12-|
|----------------------|--------------------|---------------------------------------|
|----------------------|--------------------|---------------------------------------|
|----------------------|--------------------|---------------------------------------|
|
|                  PM----------------------------------------------------------------
|----------------------|--------------------|---------------------------------------|
|----------------------|--------------------|---------------------------------------|
|----------------------|--------------------|---------------------------------------|
|--9-----------9-------|--------------------|---------------------------------------|
|--5-----------7-------|--------------------|---------------------------------------|
|------------------0-0-|---0--0-0-0-0-0-0-0-|---0----0---0--0--0----0-----0----0----|


|---------------------------------------------||
|---------------------------------------------||
|-14-12---------------------------------------||
|---------14-12---------12--------------------||
|---------------14---12----14---13-12---------||
|-------------------------------------15---12-||
|
|----------------------------------------|
|---------------------------------------------||
|---------------------------------------------||
|---------------------------------------------||
|---------------------------------------------||
|---------------------------------------------||
|--0----0-----0----0-----0----0-----0----0----||


 Verse 3
  D5   E5                         C5  D5               E5
  Gtr I
        ~~~~~~~~~~~~~~~~~                    PM|              PM|
|-----------------|-------------|----------------|----------------|
|-----------------|-------------|----------------|----------------|
|-----------------|-------------|----------------|----------------|
|-----------------|-------------|-5---7-(7)------|-7---9-(9)------|
|-----------------|-------------|-3---5-(5)--x-x-|-5---7-(7)--x-x-|
|-10---12-(12)----|-(12)--------|----------------|----------------|
|
| Gtr II
|                                            PM|              PM|
|-----------------|-------------|----------------|----------------|
|-----------------|-------------|----------------|----------------|
|-----------------|-------------|----------------|----------------|
|--7----9--(9)----|--(9)--------|-5---7----------|-7---9----------|
|--5----7--(7)----|--(7)--------|-3---5------x-x-|-5---7------x-x-|
|-----------------|-------------|----------------|----------------|


  Bm/D          E5               N.C.
          \2.5/      \2.5/         \2.5/       \2.5/
  PM
|------------------------------|------------------------------|
|------------------------------|------------------------------|
|---<9>-(<9>)------(<9>)-------|-(<9>)-------(<9>)-------x\---|
|-x----------------------------|------------------------------|
|------------------------------|------------------------------|
|------------------------------|------------------------------|
|
|                          PM----------------------------------
|------------------------------|------------------------------|
|------------------------------|------------------------------|
|------------------------------|------------------------------|
|-9-------------9--------------|------------------------------|
|-5-------------7--------------|------------------------------|
|--------------------------0-0-|---0-----0-0---0-----0-0-0--0-|


|-----------------|-----------------|
|-----------------|-----------------|
|-----------------|-----------------|
|-----------------|-----------------|
|-----------------|-----------------|
|-----------------|-----------------|
|
|---------------------------------|
|-----------------|-----------------|
|-----------------|-----------------|
|-----------------|-----------------|
|-----------------|-----------------|
|-----------------|-----------------|
|-0-0-0-0-0-0-0-0-|-0-0-0-0-0-0-0-0-|


  D5  E5                      C5  D5           A5  E5
  Gtrs I, II
|--------------|------------|----------------|----------------|
|--------------|------------|----------------|----------------|
|--------------|------------|----------------|----------------|
|-7---9-(9)----|-(9)--------|-5---7-(7)------|-----9-(9)------|
|-5---7-(7)----|-(7)--------|-3---5-(5)--x-x-|-7---7-(7)--x-x-|
|--------------|------------|----------------|-5--------------|


  D5  E5                      C5            D5
  Gtr I
|--------------|------------|-------------|------------||
|--------------|------------|-8---10---8--|-7---8---7--||
|--------------|------------|-7----7---7--|-7---7---7--||
|--------------|------------|-------------|------------||
|--------------|------------|-------------|------------||
|--------------|------------|-------------|------------||
|
| Gtr II
|--------------|------------|-------------|------------||
|--------------|------------|-------------|------------||
|--------------|------------|-------------|------------||
|-7---9-(9)----|-(9)--------|-5-----------|-7----------||
|-5---7-(7)----|-(7)--------|-3-----------|-5----------||
|--------------|------------|-------------|------------||


 Chorus
  D5  E5                          C5            D5
|----------------|--------------|-------------|------------|
|-5------------5-|--8----7---5--|-8---10---8--|-7---8---7--|
|-4----------4---|--7----7---4--|-7----7---7--|-7---7---7--|
|----------------|--------------|-------------|------------|
|----------------|--------------|-------------|------------|
|----------------|--------------|-------------|------------|
|
|----------------|--------------|-------------|------------|
|----------------|--------------|-------------|------------|
|----------------|--------------|-------------|------------|
|-7---9-(9)------|-(9)----------|-5-----------|-7----------|
|-5---7-(7)------|-(7)----------|-3-----------|-5----------|
|----------------|--------------|-------------|------------|


  D5  E5                          C5            D5
|----------------|--------------|-------------|------------||
|-5------------5-|--8----7---5--|-8---10---8--|-7---8---7--||
|-4----------4---|--7----7---4--|-7----7---7--|-7---7---7--||
|----------------|--------------|-------------|------------||
|----------------|--------------|-------------|------------||
|----------------|--------------|-------------|------------||
|
|----------------|--------------|-------------|------------||
|----------------|--------------|-------------|------------||
|----------------|--------------|-------------|------------||
|-7---9-(9)------|-(9)----------|-5-----------|-7----------||
|-5---7-(7)------|-(7)----------|-3-----------|-5----------||
|----------------|--------------|-------------|------------||


  D5  E5                          C5         A5
|----------------|--------------|----------|------|
|-5------------5-|--8----7---5--|----------|------|
|-4----------4---|--7----7---4--|----------|------|
|----------------|--------------|----------|------|
|----------------|--------------|----------|------|
|----------------|--------------|----------|------|
|
|----------------|--------------|----------|------|
|----------------|--------------|----------|------|
|----------------|--------------|----------|------|
|-7---9-(9)------|-(9)----------|-5--------|------|
|-5---7-(7)------|-(7)----------|-3--------|-7----|
|----------------|--------------|----------|-5----|


  N.C.
                                                        ~~~~~~~~~~~~~
|-----------------|-----------------|-----------------|-----------------||
|-----------------|-----------------|-----------------|-x\--------------||
|-----------------|-----------------|-----------------|------x\---------||
|-----------------|-----------------|-----------------|-----------x\----||
|-----------------|-----------------|-----------------|-----------------||
|-----------------|-----------------|-----------------|-----------------||
|
| PM------------------------------------------------------------|
|-----------------|-----------------|-----------------|-----------------||
|-----------------|-----------------|-----------------|-----------------||
|-----------------|-----------------|-----------------|-----------------||
|-----------------|-----------------|-----------------|-----------------||
|-----------------|-----------------|-----------------|-----------------||
|-7-7-7-7-7-7-7-7-|-7-7-7-7-7-7-7-7-|-7-7-7-7-7-7-7-7-|-7--7-7--7-x\----||


 Breakdown
  A5
  Gtr I
                          PM|                           PM|
|----------|------------------|----------|------------------|
|----------|------------------|----------|------------------|
|-5--------|-(5)--------------|-4--------|-(4)--------------|
|-5--------|-(5)--------------|-5--------|-(5)--------------|
|----------|--------------0-0-|----------|--------------0-0-|
|----------|------------------|----------|------------------|
|
| Gtr II
|----------|------------------|----------|------------------|
|----------|------------------|----------|------------------|
|----------|------------------|----------|------------------|
|----------|------------------|----------|------------------|
|-7--------|-(7)---7-(7)------|-7--------|-(7)---7-(7)------|
|-5--------|-(5)---5-(5)------|-5--------|-(5)---5-(5)------|


                                ~~~~~~~~   ~~~~~~   ~~~~~~~~   ~~~~~~
|--------------|------------------|-------------------|-----------------|
|--------------|------------------|-------------------|-----------------|
|-3------------|-(3)----------2-2-|-(2)--3-3-(3)--2-2-|-(2)--3-3-(3)----|
|-5------------|-(5)--------------|-------------------|-----------------|
|--------------|------------------|-------------------|-----------------|
|--------------|------------------|-------------------|-----------------|
|
|--------------|------------------|-------------------|-----------------|
|--------------|------------------|-------------------|-----------------|
|--------------|------------------|-------------------|-----------------|
|--------------|------------------|-------------------|-----------------|
|-7---7-(7)----|--7----7-(7)------|--7----------------|--7-----7-(7)----|
|-5---5-(5)----|--5----5-(5)------|--5----------------|--5-----5-(5)----|


                          PM|                           PM|
|----------|------------------|----------|------------------|
|----------|------------------|----------|------------------|
|-5--------|-(5)--------------|-4--------|-(4)--------------|
|-5--------|-(5)--------------|-5--------|-(5)--------------|
|----------|--------------0-0-|----------|--------------0-0-|
|----------|------------------|----------|------------------|
|
|----------|------------------|----------|------------------|
|----------|------------------|----------|------------------|
|----------|------------------|----------|------------------|
|----------|------------------|----------|------------------|
|-7--------|--7----7-(7)------|-7--------|--7----7-(7)------|
|-5--------|--5----5-(5)------|-5--------|--5----5-(5)------|


                                \0.5
                          ~
|----------|-----------------|--------------|----------------||
|----------|-----------------|--------------|----------------||
|-3--------|-(3)----------2--|-(2)----------|-(2)------------||
|-5--------|-(5)-------------|--------------|----------------||
|----------|-----------------|--------------|----------------||
|----------|-----------------|--------------|----------------||
|
|----------|-----------------|--------------|----------------||
|----------|-----------------|--------------|----------------||
|----------|-----------------|--------------|----------------||
|----------|-----------------|--------------|----------------||
|-7--------|--7----7-(7)-----|--7-----------|--7----7-(7)----||
|-5--------|--5----5-(5)-----|--5-----------|--5----5-(5)----||


 Guitar Solo: George Lynch
       N.C.  (G5)
|------------------------|-------------------|
|-6b8==(6)---------------|-(6)---------------|
|------------------------|-------------------|
|------------------------|-------------------|
|------------------------|-------------------|
|------------------------|-------------------|
|
|       PM------------------------------------
|------------------------|-------------------|
|------------------------|-------------------|
|------------------------|-------------------|
|------------------------|-------------------|
|------------------------|-------------------|
|-------3--3-3-3-3-3-3-3-|--3--3-3-3-3-3-3-3-|


|--------------17b19==(17)-------|-(17)r==(17)--------19-----|
|-(6)r==(6)\---------------------|---------------x\----------|
|--------------------------------|---------------------------|
|--------------------------------|---------------------------|
|--------------------------------|---------------------------|
|--------------------------------|---------------------------|
|
|--------------------------------------------------------|
|--------------------------------|---------------------------|
|--------------------------------|---------------------------|
|--------------------------------|---------------------------|
|--------------------------------|---------------------------|
|--------------------------------|---------------------------|
|--3--3--3---3----------3--3-3-3-|---3--3---3--3-3--3--3-3---|


  N.C.  (G5)
|----17-17--------------------------------|
|-20-------20---17----17---19-19p17-19p17-|
|------------------19---------------------|
|-----------------------------------------|
|-----------------------------------------|
|-----------------------------------------|
|
|  PM--------------------------------------
|-----------------------------------------|
|-----------------------------------------|
|-----------------------------------------|
|-----------------------------------------|
|-----------------------------------------|
|--3--3--3----3-----3----3-----3-----3----|


|----------------------------------------|----------------------------------------|
|----16------16------------18------------|-19-------------------------------------|
|-19------19----19s==17s19----19-18---19-|----17-17----19p17p16----16-(16)--------|
|----------------------------------------|----------19----------19----------------|
|----------------------------------------|----------------------------------------|
|----------------------------------------|----------------------------------------|
|
|------------------------------------------------------------------------------|
|----------------------------------------|----------------------------------------|
|----------------------------------------|----------------------------------------|
|----------------------------------------|----------------------------------------|
|----------------------------------------|----------------------------------------|
|----------------------------------------|----------------------------------------|
|--3----3-----3----3-----3--3--3----3----|--3-----3-----3--------3------3--3-3-3--|


  G5                 A5
|-x\-------x---x---|-x-------------------|------------19b21-(19)----|
|------------------|---------------------|--------x-x---------------|
|------------------|------12b14==(12)----|-(12)r--------------------|
|------------------|---------------------|--------------------------|
|------------------|---------------------|--------------------------|
|------------------|---------------------|--------------------------|
|
| PM-----|
|------------------|---------------------|--------------------------|
|------------------|---------------------|--------------------------|
|------------------|---------------------|--------------------------|
|----------5-5-5-5-|-7-------------------|---7---------7-----(7)----|
|-5--5-5-5-5-5-5-5-|-7-------------------|---7---------7-----(7)----|
|-3--3-3-3-3-3-3-3-|-5-------------------|---5---------5-----(5)----|


|---14h15p14----------------------|-----------------------------|
|------------17----17-15-14-(14)s=|=x---------------------------|
|---------------16----------------|-----------------------------|
|---------------------------------|----------16--17-19----------|
|---------------------------------|----17-19-----------17h19-16-|
|---------------------------------|-----------------------------|
|
|---------------------------------|-----------------------------|
|---------------------------------|-----------------------------|
|---------------------------------|-----------------------------|
|-7-------------------------------|-7------7-(7)----------------|
|-7-------------------------------|-7------7-(7)----------------|
|-5-------------------------------|-5------5-(5)----------------|


|-----------------------------------|
|-----------------------------------|
|-------17h19----------16-----------|
|-17h19-------16-17-19----16h17h19--|
|-----------------------------------|
|-----------------------------------|
|
|-----------------------------------|
|-----------------------------------|
|-----------------------------------|
|--7--------------------------------|
|--7--------------------------------|
|--5--------------------------------|


|----------------------------------------|
|----------------------------17h19h20-17-|
|-16h17h19-19p17p==16-17p=16-------------|
|----------------------------------------|
|----------------------------------------|
|----------------------------------------|
|
|----------------------------------------|
|----------------------------------------|
|----------------------------------------|
|--7-------------7----(7)----------------|
|--7-------------7----(7)----------------|
|--5-------------5----(5)----------------|


  N.C.                        B5
|------------------19-------|-x\----------||
|-17-19---20-20-19----------|-------------||
|---------------------------|-------------||
|---------------------------|-------------||
|---------------------------|-------------||
|---------------------------|-------------||
|
|  PM---------------------|
|---------------------------|-------------||
|---------------------------|-------------||
|---------------------------|-------------||
|---------------------------|-9-----------||
|---------------------------|-9-----------||
|--7----7-----7--7--7-7-7-7-|-7-----x\----||


 Verse 4
  D5  E5                      C5  D5         A5  B5
  Gtrs I, II
|--------------|------------|--------------|--------------|
|--------------|------------|--------------|--------------|
|--------------|------------|--------------|--------------|
|-7---9-(9)----|-(9)--------|-5---7-(7)----|--------------|
|-5---7-(7)----|-(7)--------|-3---5-(5)----|-7---9-(9)----|
|--------------|------------|--------------|-5---7-(7)----|


  D5  E5            N.C.
  Gtr I
       ~~~~~~             ~~~~~~
|-----------------|-------------------|
|-----------------|-------------------|
|-----------------|-7-----9-(9)-------|
|-----/9-(9)------|---9---------------|
|-----------------|-------------------|
|-----------------|-------------------|
|
| Gtr II
|             PM-----------------------
|-----------------|-------------------|
|-----------------|-------------------|
|-----------------|-------------------|
|-7----9----------|-------------------|
|-5----7----------|-------------------|
|-------------0-0-|-0-0-0-0--0--0-0-0-|


                                                 ~~~~
|--------------------------------10----------|--------------------|
|-10h11h==12p11p10-------10h12------12-15b17-|-(15)---------------|
|--------------------12p---------------------|--------------------|
|--------------------------------------------|--------------------|
|--------------------------------------------|--------------------|
|--------------------------------------------|--------------------|
|
|---------------------------------------------------------------|
|--------------------------------------------|--------------------|
|--------------------------------------------|--------------------|
|--------------------------------------------|--------------------|
|--------------------------------------------|--------------------|
|--------------------------------------------|--------------------|
|--0----0-----0----0------0----0-----0--0----|---0--0-0-0-0-0-0-0-|


  D5  E5                      C5  D5         A5  B5
  Gtrs I, II
|--------------|------------|--------------|--------------|
|--------------|------------|--------------|--------------|
|--------------|------------|--------------|--------------|
|-7---9-(9)----|-(9)--------|-5---7-(7)----|--------------|
|-5---7-(7)----|-(7)--------|-3---5-(5)----|-7---9-(9)----|
|--------------|------------|--------------|-5---7-(7)----|


  D5            E5
  Gtr I
         T          T        T            T          T          T          T
|-12h15-19p12h==15---------------------|-19p12h==15-19p12h==15-----------------------|
|------------------19p12h15-19p12h==15-|-----------------------19p12h==15-19p12h==15p|
|--------------------------------------|---------------------------------------------|
|--------------------------------------|---------------------------------------------|
|--------------------------------------|---------------------------------------------|
|--------------------------------------|---------------------------------------------|
|
| Gtr II
|                            PM-------------------------------------------------------
|--------------------------------------|---------------------------------------------|
|--------------------------------------|---------------------------------------------|
|--------------------------------------|---------------------------------------------|
|--7----------9------------------------|---------------------------------------------|
|--5----------7------------------------|---------------------------------------------|
|----------------------------0----0----|--0----0-----0----0-----0----0-----0----0----|


                                                 ~~
|---------------------------------------------|---------------------||
|-12------------------------------------------|---------------------||
|----15p==14-15p14p==12-14p12------14------12-|---------------------||
|-------------------------------14----14------|-14------------------||
|---------------------------------------------|---------------------||
|---------------------------------------------|---------------------||
|
|--------------------------------------------------------------|
|---------------------------------------------|---------------------||
|---------------------------------------------|---------------------||
|---------------------------------------------|---------------------||
|---------------------------------------------|---------------------||
|---------------------------------------------|---------------------||
|--0----0-----0----0-----0----0-----0----0----|--0-0-0-0-0-0-0-0----||


 Out-Chorus
  C5            D5               E5
|-------------|------------|----------------|--------------|
|-8---10---8--|-7---8---7--|-5------------5-|--8----7---5--|
|-7----7---7--|-7---7---7--|-4----------4---|--7----7---4--|
|-------------|------------|----------------|--------------|
|-------------|------------|----------------|--------------|
|-------------|------------|----------------|--------------|
|
|-------------|------------|----------------|--------------|
|-------------|------------|----------------|--------------|
|-------------|------------|----------------|--------------|
|-5-----------|-7----------|-7---9-(9)------|-(9)----------|
|-3-----------|-5----------|-5---7-(7)------|-(7)----------|
|-------------|------------|----------------|--------------|


  C5            D5               E5
|-------------|------------|----------------|--------------|
|-8---10---8--|-7---8---7--|-5------------5-|--8----7---5--|
|-7----7---7--|-7---7---7--|-4----------4---|--7----7---4--|
|-------------|------------|----------------|--------------|
|-------------|------------|----------------|--------------|
|-------------|------------|----------------|--------------|
|
|-------------|------------|----------------|--------------|
|-------------|------------|----------------|--------------|
|-------------|------------|----------------|--------------|
|-5-----------|-7----------|-7---9-(9)------|-(9)----------|
|-3-----------|-5----------|-5---7-(7)------|-(7)----------|
|-------------|------------|----------------|--------------|


  C5            D5
|-------------|------------|----------------|--------------|
|-8---10---8--|-7---8---7--|-5------------5-|--8----7---5--|
|-7----7---7--|-7---7---7--|-4----------4---|--7----7---4--|
|-------------|------------|----------------|--------------|
|-------------|------------|----------------|--------------|
|-------------|------------|----------------|--------------|
|
|-------------|------------|----------------|--------------|
|-------------|------------|----------------|--------------|
|-------------|------------|----------------|--------------|
|-5-----------|-7----------|-7---7-(7)------|-(7)----------|
|-3-----------|-5----------|-5---5-(5)------|-(5)----------|
|-------------|------------|----------------|--------------|


  C5         A5         B5
  Gtrs I, II
                           PM--------|
|----------|----------|----------------|
|----------|----------|----------------|
|----------|----------|----------------|
|-5--------|----------|-9--------------|
|-3--------|-7--------|-9--------------|
|----------|-5--------|-7--7-7-7-7-7-7-|


  PM----------------------------------------|
|-----------------|-----------------|-----------------|
|-----------------|-----------------|-----------------|
|-----------------|-----------------|-----------------|
|-----------------|-----------------|-----------------|
|-----------------|-----------------|---------9-9-9-9-|
|-7-7-7-7-7-7-7-7-|-7-7-7-7-7-7-7-7-|-7-7-7-7-7-7-7-7-|


  C5            D5               E5
|-------------|------------|----------------|--------------|
|-8---10---8--|-7---8---7--|-5------------5-|--8----7---5--|
|-7----7---7--|-7---7---7--|-4----------4---|--7----7---4--|
|-------------|------------|----------------|--------------|
|-------------|------------|----------------|--------------|
|-------------|------------|----------------|--------------|
|
| Gtr II
|-------------|------------|----------------|--------------|
|-------------|------------|----------------|--------------|
|-------------|------------|----------------|--------------|
|-5-----------|-7----------|-7---9-(9)------|-(9)----------|
|-3-----------|-5----------|-5---7-(7)------|-(7)----------|
|-------------|------------|----------------|--------------|


  C5            D5               E5
|-------------|------------|----------------|--------------|
|-8---10---8--|-7---8---7--|-5------------5-|--8----7---5--|
|-7----7---7--|-7---7---7--|-4----------4---|--7----7---4--|
|-------------|------------|----------------|--------------|
|-------------|------------|----------------|--------------|
|-------------|------------|----------------|--------------|
|
|-------------|------------|----------------|--------------|
|-------------|------------|----------------|--------------|
|-------------|------------|----------------|--------------|
|-5-----------|-7----------|-7---9-(9)------|-(9)----------|
|-3-----------|-5----------|-5---7-(7)------|-(7)----------|
|-------------|------------|----------------|--------------|


  C5            D5               E5
|-------------|------------|----------------|--------------|
|-8---10---8--|-7---8---7--|-5------------5-|--8----7---5--|
|-7----7---7--|-7---7---7--|-4----------4---|--7----7---4--|
|-------------|------------|----------------|--------------|
|-------------|------------|----------------|--------------|
|-------------|------------|----------------|--------------|
|
|-------------|------------|----------------|--------------|
|-------------|------------|----------------|--------------|
|-------------|------------|----------------|--------------|
|-5-----------|-7----------|-7---9-(9)------|-(9)----------|
|-3-----------|-5----------|-5---7-(7)------|-(7)----------|
|-------------|------------|----------------|--------------|


  C5         A5         B5
  Gtrs I, II
                           PM--------|
|----------|----------|----------------|
|----------|----------|----------------|
|----------|----------|----------------|
|-5--------|----------|-9--------------|
|-3--------|-7--------|-9--------------|
|----------|-5--------|-7--7-7-7-7-7-7-|


  PM----------------------------------------|
|-----------------|-----------------|-----------------*|
|-----------------|-----------------|-----------------*|
|-----------------|-----------------|-----------------*|
|-----------------|-----------------|-----------------*|
|-----------------|-----------------|---------9-9-9-9-*|
|-7-7-7-7-7-7-7-7-|-7-7-7-7-7-7-7-7-|-7-7-7-7-7-7-7-7-*|



Tablature Legend
----------------
 h   - hammer-on
 p   - pull-off
 b   - bend
 pb  - pre-bend
 r   - bend release (if no number after the r, then release immediately)
 /\  - slide into or out of (from/to "nowhere")
 s   - legato slide
 S   - shift slide
 - natural harmonic
[n]  - artificial harmonic
n(n) - tapped harmonic
 ~   - vibrato
 tr  - trill
 T   - tap
 TP  - trem. picking
 PM  - palm muting
\n/  - tremolo bar dip; n = amount to dip
 \n  - tremolo bar down
 n/  - tremolo bar up
/n\  - tremolo bar inverted dip
 =   - hold bend; also acts as connecting device for hammers/pulls
 <> - volume swell (louder/softer)
 x   - on rhythm slash represents muted slash
 o   - on rhythm slash represents single note slash

-----------
 |  - bar
||  - double bar
||o - repeat start
o|| - repeat end
*|  - double bar (ending)
 :  - bar (freetime)
 $  - Segno
 &  - Coda


Tap to rate this tab
# A B C D E F G H I J K L M N O P Q R S T U V W X Y Z