Song name
# A B C D E F G H I J K L M N O P Q R S T U V W X Y Z

Dokken - I Cant See You tab

Artist : Dokken
Song : I Can't See You
Album : Breaking The Chains (1983)
Tuning : 1/4 step down. Eb# Ab# Db# Gb# Bb# eb#
Guitar : George Lynch, Vocals : Don Dokken, Bass : Juan Crocier, Drums : "Wild" Mick Brown.


                             Intro (x2)
e---------------------------------------------------------------------------|
B---------------------------------------------------------------------------|
G---------------------------------------------------------------------------|
D-11---12-12-----11-12-11--9h11--9-9~~~~~~~~--------------------------------|
A--0----0--0------0--0--0--0-----0-0~~~~~~~~--------------------------------|
E---------------------------------------------------------------------------|

                          Verse (x2) Palm Muted
e----------------------------------------------------------------------------|
B----------------------------------------------------------------------------|
G------5---5-----5---5---------------------------------------9---9-----9---9-|
D------5---5-----5---5---5---5-----5---5---7---7-----7---7---9---9-----9---9-|
A-12/--3-3-3-3-3-3-3-3---5---5-----5---5---7---7-----7---7---7-7-7-7-7-7-7-7-|
E-12/--------------------3-3-3-3-3-3-3-3---5-5-5-5-5-5-5-5-------------------|

                              Pre-Chorus
e---------------------------------------------------------------------------|
B---------------------------------------------------------------------------|
G---5~~~~-----------------9~~~~~---5~~~~------------------------------------|
D---5~~~~--5~~~~--7~~~~~--9~~~~~---5~~~~--5~~~~--7-7-7-7-7-7-7-7------------|
A---3~~~~--5~~~~--7~~~~~--7~~~~~---3~~~~--5~~~~--7-7-7-7-7-7-7-7------------|
E----------3~~~~--5~~~~~------------------3~~~~--5-5-5-5-5-5-5-5------------|

                                Chorus (x2)
e---------------------------------------------------------------------------|
B---------------------------------------------------------------------------|
G--12-12-12-12-12----12-12--------------------------------------------------|
D--12-12-12-12-12----12-12---3---3---------3---3---3-----3------------------|
A--10-10-10-10-10----10-10---3---3---------3---3---3-----3------------------|
E----------------------------1-1-1-1-1-1-1-1---1-1-1-1-1-1-1----------------|

Repeat Verse (x2)

Repeat Chorus (x2)

Repeat Intro (x2)

Repeat Verse (x2)

               Outro : Intro (Repeat as necessary)

                              Lyrics
You keep me waiting
Why I don't know
It seems like forever
But you never show
I wanna see you
Don't want it to end
But when I'm calling
You tell me again
I Can't See You anymore
I Can't See You anymore
All my friends keep telling me that
I'm just a fool
But baby I can't help myself
I'm in love with you
Give me just one chance
And I'll make it right
Could be forever
Don't tell me tonight
I Can't See You anymore
I Can't See You anymore
All my friends keep telling me that
I'm just a fool
But baby I can't help myself
I'm in love with you
Give me just one chance
And I'll make it right
Could be forever
Don't tell me tonight
I Can't See You anymore
I Can't See You anymore
I Can't See You anymore
I Can't See You anymore
Tap to rate this tab
 
# A B C D E F G H I J K L M N O P Q R S T U V W X Y Z