Guitaretab - guitar tabs
Song name
# A B C D E F G H I J K L M N O P Q R S T U V W X Y Z

Dokken - Dream Warriors tab

e|-------------------------------------------------------|-------|
B|--15b17--13---10h13-10--12b14--r-10h12-10\8-10h8-10-8~-|-15-17-|
G|-------------------------------------------------------|-------|
D|-------------------------------------------------------|-------|
A|-------------------------------------------------------|-------|
E|-------------------------------------------------------|-------|



 1st part                          Harmony

E|-13-17-13-15-12h13-12\10~|------------------------------------|-------|
B|-------------------------|----13-15-15b17--13-15-10-13-10-8~--|-20b22-|
G|-------------------------|-14---------------------------------|-------|
D|-------------------------|------------------------------------|-------|
A|-------------------------|------------------------------------|-------|
E|-------------------------|------------------------------------|-------|



E|----------------17-19-17\15/17-----------------------------------------|
B|----------19--r-----------------20-17----------------------------17-18-|
G|---17-17-------------------------------20p19-17-20p19/21~----19--------|
D|-----------------------------------------------------------------------|
A|-----------------------------------------------------------------------|
E|-----------------------------------------------------------------------|



E|-------------------------------|-----------------------------------------|
B|-17-18-17------17-18-17-18-17--|-----------------------------------22b24-|
G|-----------19------------------|-----19-21-19-16-19-16-19-20-19-17-------|
D|-------------------------------|-----------------------------------------|
A|-------------------------------|-----------------------------------------|
E|-------------------------------|-----------------------------------------|



E|--------------------------------------------------------------|-------|
B|--17-20-17-20-20-16-17-16-15----15-15-13-14-15-13-13----------|-------|
G|-----------------------------17----------------------14-14~---|-------|
D|--------------------------------------------------------------|-17-19-|
A|--------------------------------------------------------------|-------|
E|--------------------------------------------------------------|-------|

                                           1st part
[ Tab from: http://www.guitaretab.com/d/dokken/54758.html ]
E|----------------------------------|---------17-19-19b21---r-17-19----|
B|----------------------------------|-18-20-------------------------18-|
G|----17-17-19-17----17----19-21-19-|----------------------------------|
D|-17-------------17----17----------|----------------------------------|
A|----------------------------------|----------------------------------|
E|----------------------------------|----------------------------------|



                                    Harmony

E|-17-17----------------19~--|------19-20-22--22b24--r---------------22b24-|
B|-------18-15-17-13-15------|--22----------------------18-20-17-18--------|
G|---------------------------|---------------------------------------------|
D|---------------------------|---------------------------------------------|
A|---------------------------|---------------------------------------------|
E|---------------------------|---------------------------------------------|



E|--r-|-------------------------------------12----------15-17-19-------|
B|----|-------15-17-15-------------12-13-13----15-13-12----------15~---|
G|----|----------------17-16-15-15-------------------------------------|
D|----|----------------------------------------------------------------|
A|----|----------------------------------------------------------------|
E|----|----------------------------------------------------------------|



E|--20b22------15-10h12-13-15-13-12-10--------------------------|-----|
B|--------------------------------------15-10h12-13-15-13-12-10-|-----|
G|--------------------------------------------------------------|--14-|
D|--------------------------------------------------------------|-----|
A|--------------------------------------------------------------|-----|
E|--------------------------------------------------------------|-----|



E|---------------------------------------------------------------------|
B|---------------------------------------------------------------------|
G|-9h10-12-14-12-10-9--------------------------------------------------|
D|--------------------14-9h10-12-14-12-10-9----------------------------|
A|------------------------------------------12-7h8-10-12-10-8-7-10-8h7-|
E|---------------------------------------------------------------------|



E|--------|
B|--------|
G|--------|
D|--------|
A|-5-8~---|
E|--------|
                     
Related for Dream Warriors tab
×
Dream Warriors