Song name
# A B C D E F G H I J K L M N O P Q R S T U V W X Y Z

Dokken - Just Got Lucky tab

Tuning: Standard

--15~~~-14~~~---------------|
--------------15~~~---------|
--------------------14~~~/--|
----------------------------|
----------------------------|
----------------------------|

--12b13--12--10h11p10h11p10------------|
-----------------------------13~~~~/---|
---------------------------------------|
---------------------------------------|
---------------------------------------|
---------------------------------------|

--12b13--12--10---------------15b17~~~~~~~---|
-----------------13~~~/----------------------|
---------------------------------------------|
---------------------------------------------|
---------------------------------------------|
---------------------------------------------|

Notation used:
h-hammer on
p-pull off
~-vibrato
/-slide
b-bend

I know it's not a lot, but it's a start
Tap to rate this tab
# A B C D E F G H I J K L M N O P Q R S T U V W X Y Z