Song name
# A B C D E F G H I J K L M N O P Q R S T U V W X Y Z

Dokken - Turn On The Action tab

Song:Turn On The Action
Written By:G.Lynch,J.Pilson,M.Brown
Artist:Dokken
Album:Tooth And Nail
Tuning:Half Step Down

Legend
------

h  = hammer-on
p  = pull-off
b  = bend
r  = bend release
/  = slide up/down
<5> = natural harmonic
[5] = artifical harmonic
~  = vibrato
tr = trill

       INTRO                               Ending 1

Eb|----------------------------------|----------------------------|
Bb|*---------------------------------|---------------------------*|
Gb|----10h9-7-9-------7-------5------|---10h9-7-9-------7-----5~--|
Db|----------------------------------|------------------------3~--|
Ab|*-0----------0-0-0---0-0-0----3h0-|-0----------0-0-0---0-0----*|
Eb|----------------------------------|----------------------------|

    Ending 2                         Ending 3

Eb|-----------------------------|------------------------------------8-|
Bb|----------------------3-----*|--------------------------------------|
Gb|---10h9-7-9---------4--------|------10h9-7-9--------7--------5-5----|
Db|------------------5-----3~---|--------------------------------------|
Ab|-0----------0-0-0-----------*|---0------------0-0-0---0-0-0---------|
Eb|-----------------------------|--------------------------------------|

                                                               Ending 4

Eb|--------11----------14-----------17------------20~---|--------------|
Bb|-7---------10----------13-----------16---------19~--*|-------10h9-7-|
Gb|---5/8--------8/11--------11/14--------14/17---------|--------------|
Db|-----------------------------------------------------|--------------|
Ab|----------------------------------------------------*|-----0--------|
Eb|-----------------------------------------------------|--------------|

                                              VERSE

Eb|---------------------------------------|------------------------------|
Bb|-9-------------------------------------|------------------------------|
Gb|------------------2-------------2------|-------------2--2-------------|
Db|-----------2h3-5-----5h3-2-3-5-----5h3-|-------------2--2-------------|
Ab|----0-0-0------------------------------|--0h3-0-3-0--0--0---0h3-0-3-0-|
Eb|---------------------------------------|------------------------------|



Eb|-------------------------------------------|-------------|----------|
Bb|-------------------------------3/4\3------*|-------------|----------|
Gb|----0-------------2-2----------2/3\2-------|-0-------0---|---10h9-7-|
Db|-2--0-------------2-2--------2-------------|-0-------0---|----------|
Ab|-0------0h3-0-3-0-0-0--0h3-0-0------------*|-----3-------|-0--------|
Eb|-------------------------------------------|-----1-------|----------|

                                     run finger up string sounding all 
                                     natural harmonics Chorus section

Eb|---------------------|--------------------------------------|--------|
Bb|---------------------|--------------------------------------|--------|
Gb|-9-------7-----5~-%--|--0-----------------------------------|--------|
Db|---------------5~----|--0-----------------------------------|------2-|
Ab|---0-0-0---0-0-------|------3--2----------------------------|--3h0-0-|
Eb|---------------------|------1--0--0-0-0-0-0-0-0-0-0-0-0-0-0-|--------|

                                        Chorus ending 1  Chorus ending 2

Eb|-------------------------------|--------------------|---------------|
Bb|-------------------------------|--------------------|---------------|
Gb|----2------------0-----------2-|--------------------|-4~--5~--7~--8~|
Db|----0-------2----0------2----0-|--------5-----------|-2~--3~--5~--6~|
Ab|-0------3h0-0-0-----3h0-0-0----|-----5--3--5--0h3-0-|---------------|
Eb|-------------------------------|-----3-----3--------|---------------|



        Overdub 1                          Solo

Eb|---------------------------------------|---------------------------|
Bb|----15b16----(16)---(16)---13----------|---------------------------|
Gb|-------------------------------14~-14--|---------------------------|
Db|---------------------------------------|---------------------------|
Ab|---------------------------------------|---------14h15-14-15-14h15-|
Eb|---------------------------------------|---------------------------|



Eb|---------------------------------------------------------------------|
Bb|---------------------------------------------------------------------|
Gb|-----------------------------------------------------------16b17--14-|
Db|----------------------------------14-----------14h16----14-----------|
Ab|-14-15-14h15-14-15-14h15-14-12-16----16~-14h16-----------------------|
Eb|---------------------------------------------------------------------|



Eb|----------------------19b21-19-19-19--r17-----------------------------|
Bb|-------14-14h19-14-19---------------------19~----14h19-14-19-14-19-14-|
Gb|-14h16----------------------------------------------------------------|
Db|----------------------------------------------------------------------|
Ab|----------------------------------------------------------------------|
Eb|----------------------------------------------------------------------|



Eb|---------------------------------------------------------------------|
Bb|-19-14-19-14-19--14h17-14-17-14-17-14-17-14-17-14-17--16h17-16-14-16-|
Gb|---------------------------------------------------------------------|
Db|---------------------------------------------------------------------|
Ab|---------------------------------------------------------------------|
Eb|---------------------------------------------------------------------|



Eb|----------------------------|-----------------------------------------|
Bb|-14------14-14h17-14--------|-----------------------------------------|
Gb|-----16---------------16h14-|-----------------------------------------|
Db|----------------------------|-----16h14-16-14-16-14-16-14-16-14-16-14-|
Ab|----------------------------|-----------------------------------------|
Eb|----------------------------|-----------------------------------------|



Eb|--------------------------------------------------------------------|
Bb|-----------------------------17------------6b8----6b8--6-5-3--------|
Gb|-----------------------------18------------------------------6-5~---|
Db|--------------------------------------------------------------------|
Ab|-14h15-14----14-----------------------------------------------------|
Eb|----------17----17-15-14-12~----------------------------------------|



Eb|---------6b8---7~-----------------------------------------------------|
Bb|---6b8-------------17b18----17h18-17-15-17h18-17-15----------15h17-18-|
Gb|----------------------------------------------------15h17-18----------|
Db|----------------------------------------------------------------------|
Ab|----------------------------------------------------------------------|
Eb|----------------------------------------------------------------------|

                                                            w/ heavy flanger

Eb|-------------17b19--15-17----15--------------------------|----------|
Bb|-17-15--------------------18----17-18-15-17----15--------|----------|
Gb|-------{17}~--------------------------------17-----------|----------|
Db|--------------------------------------------------15-14~-|------0---|
Ab|---------------------------------------------------------|-2----0---|
Eb|---------------------------------------------------------|-0--------|

                                                         End riff 1

Eb|----------------------------------------------------|----------------|
Bb|----------------------------------------------------|-29b30-20-20-20-|
Gb|----------------------------------------------------|----------------|
Db|------0-------------------------------------9--9-9--|----------------|
Ab|--2---0-------------------------------------7--7-7--|----------------|
Eb|--0-------0-0-0-0-0-0-0-0-0-0-0-0-0-0-0-0-0---------|----------------|

          Ect.     End riff 2

Eb|---------------------------------------------------------------------|
Bb|-20-20-20-20---------------------------------------------------------|
Gb|----------------12~-10h12-10-12-10-12~-12h10-12-------12h10-12-------|
Db|------------------------------------------------12h10----------12h10-|
Ab|---------------------------------------------------------------------|
Eb|---------------------------------------------------------------------|



Eb|--------------------------------------------------------------------|
Bb|--------------------------------------------------------12-13-12----|
Gb|-12h10-12--------15h12-------15h12-------15h12-------15----------15-|
Db|----------12h10--------15h12-------15h12-------15h12----------------|
Ab|--------------------------------------------------------------------|
Eb|--------------------------------------------------------------------|



Eb|---------------------------------------------------------------------|
Bb|-12-13-14b15--14-12-14-----------------------------------------------|
Gb|-----------------------15~---------5~------5~-----5~-----5~-----5~---|
Db|----------------------------7~-5h7-----5h7----5h7----5h7----5h7----5h|
Ab|---------------------------------------------------------------------|
Eb|---------------------------------------------------------------------|



Eb|---------------------------------------------------------------------|
Bb|------------------------13h17-13h17-13h17-17h15-13-17h15-13-17h15-13-|
Gb|---5~-----5~-7b8-5-7-5~----------------------------------------------|
Db|-7----5h7------------------------------------------------------------|
Ab|---------------------------------------------------------------------|
Eb|---------------------------------------------------------------------|



Eb|----------17-----------17----------17h15-13----------22b23--20~-----|
Bb|-13h15-17-----13h15-17----13h15-17----------17h15-13----------------|
Gb|----------------------------------------------------------------<3>-|
Db|--------------------------------------------------------------------|
Ab|--------------------------------------------------------------------|
Eb|--------------------------------------------------------------------|



Eb--------------------------------------|
Bb--------------------------------------|
Gb--<5>--<5>--<3>--<5>--<3>--<(3)>~-9\--|
Db----------------------------------7\--|
Ab--------------------------------------|
Eb--------------------------------------|


LYRICS:

I'm like a wildcat at midnight
I'm like a stick of dynamite
Evil senses taking over me
Gonna let the action steal the night
     
Turn up the heat
Turn down the lights (action, action)
Turn up the heat
Baby go all night
     
Turn on the action
Turn on the night
Turn on the action
Turn on the night
     
I'm looking over my shoulder
I'm running reckless through the night
Forever young not getting older
Satisfaction guaranteed tonight
     
Turn up the heat
Turn down the lights (action, action)
Turn up the heat
Baby go all night
     
Turn on the action
Turn on the night
Turn on the action
Turn on the night






Tap to rate this tab
# A B C D E F G H I J K L M N O P Q R S T U V W X Y Z