Song name
# A B C D E F G H I J K L M N O P Q R S T U V W X Y Z

Dolls United - Eine Insel Mit Zwei Bergen tab

             Dolls United - Eine Insel mit zwei Bergen

http://de.wikipedia.org/wiki/Dolls_United

e------------------------------|------------------------------|
b---0--------------------------|------------------------------|
g-----2-0----------------------|--2-0-------------------------|
D---------0-0-0-0-0------------|------4-0-0-0-0---------------|
A------------------------------|------------------------------|
E------------------------------|------------------------------|
     Eine Insel mit zwei Bergen    und dem tiefen, weiten Meer

e------------------------------|------------------------------|
b------------------------------|--------------0---------------|
g--2-0-------------------------|------0---0-2-----------------|
D------4-0-0-0-0---------------|--2-4---4---------------------|
A------------------------------|------------------------------|
E------------------------------|------------------------------|
  Mit viel Tunnels und Geleisen    und dem Eisenbahnverkehr

e------------------------------|------------------------------|
b---0--------------------------|------------------------------|
g-----2-0----------------------|--2-0-------------------------|
D---------0-0-0-0-0------------|------4-0-0-0-0---------------|
A------------------------------|------------------------------|
E------------------------------|------------------------------|
 Nun, wie mag die Insel heißen,  ringsherum ist schoener Strand

e------------------------------|------------------------------|
b------------------------------|------------------------------|
g--2-0-------------------------|------0-0-0-0-0---------------|
D------4-0-0-0-0---------------|--2-4-------------------------|
A------------------------------|------------------------------|
E------------------------------|------------------------------|
  Jeder sollte einmal reisen,       In das schoene Lummerland!



e------------------------------|------------------------------|
b--1-0------1-0----------------|--0--------0------------------|
g------2--------2--------------|----2-0------2-0--------------|
D--------2--------2------------|--------0--------0------------|
A------------------------------|------------------------------|
E------------------------------|------------------------------|


e------------------------------|------------------------------|
b------------------------------|-------------0----------------|
g--2-0-----------0-2-----------|----0---0-2-------------------|
D------4-2-0-2-4---------------|--4---4-----------------------|
A------------------------------|------------------------------|
E------------------------------|------------------------------|
   



Eine Insel mit zwei Bergen
und im tiefen, weiten Meer
Mit viel Tunnels und Geleisen
und dem Eisenbahnverkehr
Nun, wie mag die Insel heißen,
ringsherum ist schoener Strand
Jeder sollte einmal reisen,
In das schoene Lummerland!

Eine Insel mit zwei Bergen
Und dem Fotoatelier
In dem letzten macht man Bilder,
Auf den ersten "dulijoe"
Diese Breiten, diese Tiefen,
Diese Hoehen sind bekannt
Und man spricht von den Motiven
Auf dem schoenen Lummerland!

Eine Insel mit zwei Bergen
Und dem Fernsprechtelefon
wählt man nur die richtige Nummer,
klappt auch die Verbindung schon.
"Hallo, hier ist falsch verbunden!"
"Wollen sie sich jetzt beschwer´n?"
"Nein, warum? Das kann passier´n!"
"Also dann auf Wiederhör´n!"

Eine Insel mit zwei Bergen
Und dem Laden von Frau Waas:
Hustenbonbons, Alleskleber
Regenschirme, Leberkas,
Koerbe, Huete, Lampen, Wuerste,
Blumenkohl und Fensterglas,
Lederhosen, Kukucksuhren
Und noch dies und dann noch das!
Tap to rate this tab
 
# A B C D E F G H I J K L M N O P Q R S T U V W X Y Z