Guitaretab - guitar tabs
Song name
# A B C D E F G H I J K L M N O P Q R S T U V W X Y Z

Dolly Crate - Push And Shove tab

Dolly Crate- "Push and Shove"
official tab by Dallas Morgan

+=palm mute

*intro*
*verse*
   ------------------------------------------
   ------------------------------------------
   ------------------------------------------
   ------------------------------------------
   -99999-77777-99999-11/11/11---------------
   -77777-00000-77777-99999------------------

   ------------------------------------------
   ------------------------------------------
   ------------------------------------------
   --------------------------------9999------
   -99999-77777-99999-11/11/11/11--7777------
   -77777-00000-77777-9--9--9--9-------------

*chorus*
------------------------------------------------------------
------------------------------------------------------------
-----------------99999999---------------------------99999999
-------99999999--77777777-13/13/13/13/13/13/13/13/--77777777
-------77777777-----------11/11/11/11/11/11/11/11/----------

*interlude*
[ Tab from: http://www.guitaretab.com/d/dolly-crate/30092.html ]
------------------------------------------------------------
------------------------------------------------------------
-----------------99999999---------------------------99999999
-------99999999--77777777-13/13/13/13/13/13/13/13/--77777777
-------77777777-----------11/11/11/11/11/11/11/11/----------
       ++++++++  ++++++++ +++++++++++++++++++++++   ++++++++

spice it up some!


_____________________

went over to her house
she said it wouldnt work
she said i'm not the right guy
she said i'm just a jerk

chorus
------

why did she dump me?
i thought that i was in love
she had to dump me
and now its push and shove
why did she dump me?
i thought that i was the one
she had to dump me this isnt very fun


went to the movies 
tried to relieve some pain 
saw her and her boyfriend 
and then it started again


why did she dump me?
i thought that i was in love
she had to dump me
and now its push and shove
why did she dump me?
i thought that i was the one
she had to dump me this isnt very fun

(chorus after interlude)

have fun kids
Related for Push And Shove tab
Push And Shove chords by Dolly Crate