Song name
# A B C D E F G H I J K L M N O P Q R S T U V W X Y Z

Dolly Parton - Jolene tab

-------------------------------------------------------------------
                  Jolene - Dolly Parton
-------------------------------------------------------------------
Tabbed by:tom murphy


Tuning: standard capo 4th (Am is C#m)


basically play this as fast as you can:


     Am 
e|-----------------------------------------------|
B|------------0-x--0-h-1--------------1-p-0------|
G|---0-h-2----2-x--2---2--------------2----------|
D|---------2---------------------2------------2--|
A|---0---------------------0---------------------|
E|--------------0---------------------0----------|


************************************

| /   slide up
| \   slide down
| h   hammer-on
| p   pull-off
| ~   vibrato
| +   harmonic
| x   Mute note
| b   Bend
| pb  Pre-bend
| br  Bend release
| pbr Pre-bend release
| brb Bend release bend

************************************
Tap to rate this tab
 
# A B C D E F G H I J K L M N O P Q R S T U V W X Y Z