Song name
# A B C D E F G H I J K L M N O P Q R S T U V W X Y Z

Dolly Parton - Its On Fie For You tab

Tabbed by: hugh jazz
Email: no

Tuning:yes

e|---------------------------------------------------------------------------|
B|----7----------------------------------------------------------------------|
G|------------------------------------------7--------------------------------|
D|-------------------------------------------------7-------------------------|
A|----------------------------7-----------------------------44---------------|
E|---------------------------------------------------------------------------|

e|---------------------1-----------------------------------------------------|
B|---------------------0----------------------------66666666666~-------------|
G|-------9-------------0-----------------------------------------------------|
D|-------1-------------0-------------7---------------------------------------|
A|---------------------2----------------------2------------------------------|
E|---------------------3-----------------------------------------------------|

thats the whole song.
Tap to rate this tab
# A B C D E F G H I J K L M N O P Q R S T U V W X Y Z