Song name
# A B C D E F G H I J K L M N O P Q R S T U V W X Y Z

Dolly - Matins Dencre tab

Artist: Dolly Tabbed by: Radada

Matins D'Encre Tab by Dolly

-----------------------------------------------------------------------------
                    * Matins D'Encre - Dolly *
-----------------------------------------------------------------------------

Tabbed by: Radada
Email: pasgroumpf@yahoo.fr

Tuning: F#BEAC#F# (accordage standard avec un capo en seconde case en fait)

Intro:

[A]
F#---------------------------|
C#-----------------0-----2---|
A ---4-----(4)-----2-ou--2---|
E ---4------4------2-----2---|
B ---2------x------0-----0---|
F#----------0----------------|

[B]                                                 [C]
F#------------------------|                         F#---------------2--------|
C#---------x--2---2-------|                         C#---------x--0-----------|
A ---4-----x--2-----------|    ou la seconde fois   A ---4-----x--2-----------|
E ---4-----x--2-----------|                         E ---4-----x--2-----------|
B ---2-----x--0-----------|                         B ---2-----x--0-----------|
F#------------------------|                         F#------------------------|


couplet : [A][B][A][C]

Pont :

F#---2-------2---|
C#---2-------2---|
A ---2-------2---|
E ---4-----------|
B ---4-----------|
F#---2-----------|


Refrain :

F#---------2----------------2-------------------------0------2---2---2-------------------|
C#---------2----------------2------------------------------------------------------------|
A ---------2----------------2---------1----2-----1---------------------------------------|
E ----4-------------0-----------------2--------------------------------------------------|
B ---------------------------------------------------------------------------------------|
F#---------------------------------------------------------------------------------------|
               On ferait couler...


Grosso modo, il faut agrémenter sur ces accords avec de légères variations selon votre feeling.
Le refrain tourne autour du G#m avec des basses différentes. Essaie aussi d'égrainer les accords
pour faire sonner chaque note séparement.
Tap to rate this tab
 
# A B C D E F G H I J K L M N O P Q R S T U V W X Y Z