Guitaretab - guitar tabs
Song name
# A B C D E F G H I J K L M N O P Q R S T U V W X Y Z

Dolores O'riordan - Accept Things tab

Accept Things
Intro and verses:Em Am Bm
Bridge:Am Am Bm Am Bm
Chorus:E A B A..C
[ Tab from: http://www.guitaretab.com/d/dolores-oriordan/87504.html ]
This is the electric guitar played in the chorus
e ---4--4--4--4--4--4--4--4--5--5--5--5--5--5--5--5----------|
b ---5--5--5--5--5--5--5--5--5--5--5--5--5--5--5--5----------|
g -----------------------------------------------------------|
D -----------------------------------------------------------|
A -----------------------------------------------------------|
E -----------------------------------------------------------|

e ---7--7--7--7--7--7--7--7--5--5--5--5--5--5--5--5-----------|
b ---7--7--7--7--7--7--7--7--5--5--5--5--5--5--5--5-----------|
g ------------------------------------------------------------|
D ------------------------------------------------------------|
A ------------------------------------------------------------|
E ------------------------------------------------------------|
Related for Accept Things tab