Guitaretab - guitar tabs
Song name
# A B C D E F G H I J K L M N O P Q R S T U V W X Y Z

Dolores O'riordan - Ocrober tab

                        DOLORES O'RIORDAN

                            "October"


Tuning: Eb Ab Db Gb Bb Eb           ...as transcribed by Rincewind
                            contact: dmitrij.leppee@email.t-com.hr

INTRO                                             Guitar 1 w/delay
                                                        |---------|
                                                        |---7-8-7-|
                                                        |-9-------|
                                                        |---------|
                                                        |---------|

 Bass
|-----------------5-5-5-5-5-5-5-5-7-7-7-7-7-7-7-7-4-4-4-4-4-4-4-4-|
|-----------------------------------------------------------------|
|-7-7-7-7-7-7-7-7-------------------------------------------------|
|-----------------------------------------------------------------|
|Guitar 1 w/delay
|-----------------------------------------------------------------|
|-----------------------------------------------------------7-8-7-|
|---------------------------------------------------------9-------|
|-----------------------------------------------------------------|
|-----------------------------------------------------------------|
|Guitar 2
|-12----------12--/19---15---17---14--------------10--------------|
|-----------------------------------------------------------------|
|-----------------------------------------------------------------|
|-----------------------------------------------------------------|
|-----------------------------------------------------------------|
|-----------------------------------------------------------------|

 Bass
|-----------------5-5-5-5-5-5-5-5-7-7-7-7-7-7-7-7-4-4-4-4-4-4-4-4-|
|-----------------------------------------------------------------|
|-7-7-7-7-7-7-7-7-------------------------------------------------|
|-----------------------------------------------------------------|
|Guitar 2
|-12----------12--/19---15---17---14--------------10--/12--/14----|
|-----------------------------------------------------------------|
|-----------------------------------------------------------------|
|-----------------------------------------------------------------|
|-----------------------------------------------------------------|
|-----------------------------------------------------------------|


VERSE
 Bass
|-----------------5-5-5-5-5-5-5-5-7-7-7-7-7-7-7-7-4-4-4-4-4-4-4-4-|
|-----------------------------------------------------------------|
|-7-7-7-7-7-7-7-7-------------------------------------------------|
|-----------------------------------------------------------------|
|Guitar 1 w/delay
|-----------------------------------------------------------------|
|-----------------------------------------------------------7-8-7-|
|---------------------------------------------------------9-------|
|-----------------------------------------------------------------|
|-----------------------------------------------------------------|
|-----------------------------------------------------------------|
|Guitar 2
|-12--------------19--------------22------------------------------|
|-----------------------------------------------------------------|
|-----------------------------------------------------------------|
|-----------------------------------------------------------------|
|-----------------------------------------------------------------|
|-----------------------------------------------------------------|
[ Tab from: http://www.guitaretab.com/d/dolores-oriordan/88196.html ]
 Bass
|-----------------5-5-5-5-5-5-5-5-7-7-7-7-7-7-7-7-4-4-4-4-4-4-4-4-|
|-----------------------------------------------------------------|
|-7-7-7-7-7-7-7-7-------------------------------------------------|
|-----------------------------------------------------------------|
|Guitar 1 w/delay
|-----------------------------------------------------------------|
|-------------------------------------------------------------7---|
|-----------------------------------------------------------7---7-|
|-----------------------------------------------------------------|
|-----------------------------------------------------------------|
|-----------------------------------------------------------------|
|Guitar 2
|-12--------------19--------------22------------------------------|
|-----------------------------------------------------------------|
|-----------------------------------------------------------------|
|-----------------------------------------------------------------|
|-----------------------------------------------------------------|
|-----------------------------------------------------------------|

 Bass
|-----------------5-5-5-5-5-5-5-5-7-7-7-7-7-7-7-7-4-4-4-4-4-4-4-4-|
|-----------------------------------------------------------------|
|-7-7-7-7-7-7-7-7-------------------------------------------------|
|-----------------------------------------------------------------|
|Guitar 1 w/delay
|-----------------------------------------------------------------|
|---------------------------------------------------------------7-|
|-----------------------------------------------------------7-9---|
|-----------------------------------------------------------------|
|-----------------------------------------------------------------|
|-----------------------------------------------------------------|
|Guitar 2
|-12--------------19--------------22------------------------------|
|-----------------------------------------------------------------|
|-----------------------------------------------------------------|
|-----------------------------------------------------------------|
|-----------------------------------------------------------------|
|-----------------------------------------------------------------|

 Bass
|-----------------5-5-5-5-5-5-5-5-7-7-7-7-7-7-7-7-4-4-4-4-4-4-4---|
|-----------------------------------------------------------------|
|-7-7-7-7-7-7-7-7-------------------------------------------------|
|-----------------------------------------------------------------|
|Guitar 2
|-12--------------19--------------22------------------------------|
|-----------------------------------------------------------------|
|-----------------------------------------------------------------|
|-----------------------------------------------------------------|
|-----------------------------------------------------------------|
|-----------------------------------------------------------------|


CHORUS
 Bass
|-----------------------------------------------------------------|
|-----------------------------------------------------------------|
|-5-5-5-5-5-5-5-5-5-5-5-5-5-5-5-5-3-3-3-3-3-3-3-3-2-2-2-2-2-2-2-2-|
|-----------------------------------------------------------------|
|Guitar 1
|-----------------------------------------------------------------|
|-----------------------------------------------------------------|
|-7-------------------------------5---------------4---------------|
|-7-------------------------------5---------------4---------------|
|-5-------------------------------3---------------2---------------|
|-----------------------------------------------------------------|
|Guitar 2 ***listen to this part carefully to get the timing right***
|-----------------------------------------------------------------------------------|
|-----------------------------------------------------------------------------------|
|-16/19-19-19-19\-16/19-19-19-19\17-17-17\16-16-16-16h17p16-16-14h16-14h16-14h16-14-|
|-----------------------------------------------------------------------------------|
|-14/17-17-17-17\-14/17-17-17-17\15-15-15\14-14-14----------------------------------|
|-----------------------------------------------------------------------------------|


INTERLUDE
 Guitar 2 w/e-bow
|-----------------------------------------------------------------|
|-----------------------------------------------------------------|
|-9~~~~~~~~~~~~~~~/16~~\12~~/14~~/11~~~~~~~~~~~~~/7~~~~~~~~~~~~~~-|
|-----------------------------------------------------------------|
|-----------------------------------------------------------------|
|-----------------------------------------------------------------|


h - hammer on
p - pull off
/ - slide to note
~ - vibrato
Related for Ocrober tab
Advertisement will be closed in 10 seconds