Song name
# A B C D E F G H I J K L M N O P Q R S T U V W X Y Z

Dom - I Wonder tab

Intro riff - picked
e|----7-------7-------7-------7-------2-------2-------2----2-4-2----|
B|--7---7---7---7---7---7---7---7---2---2---2---2---2---2-----------|
G|4-------4-------4-------4-------3-------3-------3-----------------|
D|------------------------------------------------------------------|
A|------------------------------------------------------------------|
E|------------------------------------------------------------------|


e|----4-------5-------5-------5-------7-------7--------9-------9----|
B|--5---5---5---5---5---5---5---5---9---9---9---7----11--11--11---11|
G|6-------6-------6-------6-------9-------9-------11-------11-------|
D|------------------------------------------------------------------|
A|------------------------------------------------------------------|
E|------------------------------------------------------------------|

B                                                                   F#
Girl I know, Theres something wrong
                                  C#m
I can see it when I look in your eyes
                                                     E                     F#               B
And I know that it couldnt be far, its the story of our lives
                                                         F#                                C#m
And when I look over my shoulder, I know who will be on the other side
                                  E                          F#
And things will get trashy til we get to my place
                    B
And I wonder
                     F#                                               C#m                   E
I wonder if you will ever know I never wanted you to go, No I dont think so
               F#
I donít think so

Remaining Lyrics:
Or How much, how much I been wishing we could make it work or just forget it for a 
minute and how bad it hurts and I donít know how and I dont know how
You know, theres nothing wrong
Maybe you just need a reason to cry
Baby I dont have a reason to lie, its the story of our lives
And when I look over my shoulder, I know who will be on the other side
And things will get trashy til we get to my place
I wonder if you will ever know I never wanted you to go, No I dont think so
I dont think so
Or How much, how much I been wishing we could make it work or just forget it for a 
minute and how bad it hurts and I dont know how and I dont know how



The same chord progression runs throughout. Sorry I couldnít be bothered to tab 
out the lead guitar, but this is a start. Enjoy!
Tap to rate this tab
 
# A B C D E F G H I J K L M N O P Q R S T U V W X Y Z