Dom - Rude As Jude tab

-------------------------------------------------------------------------------
			      Rude As Jude - Dom
-------------------------------------------------------------------------------
Tabbed by: Stephen
Email: kingofkevs@hotmail.com

This is just the main riff that repeats throughout the song.
If you can work out the chords, use this to make a more complete tab.
Don't worry about crediting me or anything.

A slightly shortened version of the riff is used as the intro:

Tuning:

e|---------------------------------------------------------------------------|
B|---------------------------------------------------------------------------|
G|---------------------------------------------------------------------------|
D|---------------------------------------------------------------------------|
A|--0--2--3--7--5--6/9--11--9--7--5--0--2--3--7--5--6/9--11--9--7--5---------|
E|---------------------------------------------------------------------------|

e|----------------------------------------------------------0----------------|
B|----------------------------------------------------------0----------------|
G|----------------------------------------------------------0----------------|
D|----------------------------------------------------------2----------------|
A|--0--2--3--7--5--6/9--13--11--9--7--0--2--3--7--5--6/9----2----------------|
E|----------------------------------------------------------0----------------|

Then this is the full riff used in the rest of the song 
(it kicks in with the chorus, 'This is is okay...'):

e|---------------------------------------------------------------------------|
B|---------------------------------------------------------------------------|
G|---------------------------------------------------------------------------|
D|---------------------------------------------------------------------------|
A|--0--2--3--7--5--6/9--11--9--7--5--0--2--3--7--5--6/9--11--9--7--5---------|
E|---------------------------------------------------------------------------|

e|---------------------------------------------------------------------------|
B|---------------------------------------------------------------------------|
G|---------------------------------------------------------------------------|
D|---------------------------------------------------------------------------|
A|--0--2--3--7--5--6/9--13--11--9--7--0--2--3--7--5--6/9--11--9--7--5--------|
E|---------------------------------------------------------------------------|

You should feel free to mess about with sliding the notes into each other; 
this is certainly done a lot if you watch the song being played live.
Tap to rate this tab
 
# A B C D E F G H I J K L M N O P Q R S T U V W X Y Z