Song name
# A B C D E F G H I J K L M N O P Q R S T U V W X Y Z

Domenico Cimarosa - C49 - Sonata In Cm tab

Sonata in C minor (Larghetto) C49 - Domenico Cimarosa (1749-1801)

Transposed to Bm

Tabbed by Canaan Hadley-Voth - ugggg@hotmail.com - April 2002

Tabbed by ear from a "25 Guitar Favorites" CD - (might have missed
a few here and there). Linger on the first note of each measure.

Tempo - slowly

  |   .   ,   .   |   .   ,   .   |   .   ,   .   |   .   ,   .
E-------------------------2-------------------------------2-------|
B---2-----------------3-------3---0-2-0---0-----------3-------3---|
G-4---4-3-4-----------------------------3-------------------------|
D-----------------------------------------------------------------|
A-2---------------0-----------------------------------------------|
D---------------------------------5---------------4---------------|

  |   .   ,   .   |   .   ,   .   |   .   ,   .   |   .   ,   .
E-------------------------2-------------------------------2-------|
B-2-3-2-1-2-----------2-----------0-2-0---0-----------3-------3---|
G-----------------------------3---------3-------------------------|
D-----------------------------------------------------------------|
A-------------------------------------------------2---------------|
D-2---------------4---------------5-------------------------------|

  |   .   ,   .   |   .   ,   .   |   .   ,   .   |   .   ,   .
E-------------------------0-------------------------------7-------|
B-2-3-2-1-2-----------2-------------2-----------------7-------7---|
G-----------------------------3---4---4-3-4-----------------------|
D-------------------------------------------------0---------------|
A---------------------------------2-------------------------------|
D-2---------------4-----------------------------------------------|

  |   .   ,   .   |   .   ,   .   |   .   ,   .   |   .   ,   .
E-3-5-3-2-3---------------5-------2-3-2-0-2---------------5-------|
B---------------------5-------5-----------------------7-------7---|
G-----------------------------------------------------------------|
D-2-------------------------------0-------------------------------|
A-----------------4-----------------------------------------------|
D-------------------------------------------------0---------------|

  |   .   ,   .   |   .   ,   .   |   .   ,   .   |   .   ,   .
E-------------------------0-----------------------0-------2-------|
B-5-7-5-4-5-----------0-------3---2---------------2-------3-------|
G-0---------------1-------------------2-------2-------2-------2---|
D-----------------------------------------------------------------|
A---------------------------------0-------0-------0-------0-------|
D-----------------------------------------------------------------|

  |   .   ,   .   |   .   ,   .   |   .   ,   .   |   .   ,   .
E-3---------------5-3-2---2-----------------------2-------3-------|
B-5---------------------5---5-3-2-3---------------3-------5-------|
G-----2-------2-------2-------2-------2-------2-------2-------2---|
D-----------------------------------------------------------------|
A-0-------0-------0-------0-------0-------0-------0-------0-------|
D-----------------------------------------------------------------|

  |   .   ,   .   |   .   ,   .   |   .   ,   .   |   .   ,   .
E-5---------------7-------------------------------0-------2-------|
B-7-----------------108-7-8-7---------------------2-------3-------|
G-----------------------------9-8-9-----------2-------2-------2---|
D-----7-------7-------7-------7-------7---------------------------|
A-0-------0-------0-------0-------0-------0-------0-------0-------|
D-----------------------------------------------------------------|

  |   .   ,   .   |   .   ,   .   |   .   ,   .   |   .   ,   .
E-3---------------9-7-------------2-------5---5-------------2-0---|
B-5-------------------108-108-7---3---------7---7-3-------4-----4-|
G-----2-------------------------9-2-------------------------------|
D-------------7-------7-------7---0-------0-------4-------4-------|
A-0-------0-------0-------0---------------------------------------|
D-----------------------------------------------------------------|

  |   .   ,   .   |   .   ,   .   |   .   ,   .   |   .   ,   .
E-----------3-2-0-2-5---2-0-3---0---------------------------------|
B-5-------5-----------3-------2---3-------------0---2-3-------0---|
G-------------------------0---2---4-------4-6-7---2-----2-0-2---0-|
D-5---------------0---4-------------------------------------------|
A---------4-------------------------------------------------------|
D-----------------------------------------5-------4-------2-------|

  |   .   ,   .   |   .   ,   .   |   .   ,   .   |   .   ,   .
E---------5---5-------------2-0-----------0-3-2-0-2-5---2-0-3---0-|
B-----------7---7-3-------4-----4-5-------------------3-------2---|
G-----------------------------------------------------------------|
D-4-------0-------4-------4-------5-------------------------------|
A-------------------------------------------------0-------0-------|
D-0---------------------------------------5-----------------------|

  |   .   ,   .   |   .   ,   .   |   .   ,   .   |   .   ,   .
E-----------------------------------------2-----------------------|
B-3-----------------2-----------------3-------3---0-2-0---0-------|
G-----------------4---4-3-2-----------------------------3---------|
D-0---------------------------------------------------------------|
A-----------------2---------------0-------------------------------|
D-------------------------------------------------5---------------|

  |   .   ,   .   |   .   ,   .   |   .   ,   .   |   .   ,   .
E---------2-------------------------------2-----------------------|
B-----3-------3---2-3-2-1-2-----------2-----------0-2-0---0-------|
G---------------------------------------------3---------3---------|
D-----------------------------------------------------------------|
A-----------------------------------------------------------------|
D-4---------------2---------------4---------------5---------------|

  |   .   ,   .   |   .   ,   .   |   .   ,   .   |   .   ,   .
E---------2-------------------------------0-----------------------|
B-----3-------3---2-3-2-1-2-----------2-------------2-------------|
G---------------------------------------------3---4---4-3-4-------|
D-----------------------------------------------------------------|
A-2-----------------------------------------------2---------------|
D-----------------2---------------4-------------------------------|

  |   .   ,   .   |   .   ,   .   |   .   ,   .   |   .   ,   .
E-----8---7---5---3-5-3-2-3-----------4---5-------2-3-2-0-2-------|
B---------------------------------------------5-------------------|
G-----------------------------------------------------------------|
D-----------------2-------------------------------0---------------|
A-6-------------------------------4-------------------------------|
D-----------------------------------------------------------------|

  |   .   ,   .   |   .   ,   .   |   .   ,   .   |   .   ,   .
E---------2-------------------------------------------------------|
B-----3-------3---1-3-1-0-1---------------3-------0---------------|
G-------------------------------------4-------4-----------3-------|
D-----------------------------------------------------------------|
A-2---------------------------------------------------------------|
D-----------------2---------------3---------------4---------------|

  |   .   ,   .   |   .   ,   .   |   .   ,   .   |   .   ,   .
E-----------------------------7---------------7---------------7---|
B-----------------0-2-0---0-------0-2-0---0-------0-2-0---0-------|
G-----------------------3---------------3---------------3---------|
D-----------------0---------------2---------------4---------------|
A-----------------------------------------------------------------|
D-4---5---4---2---0---------------2---------------4---------------|

  |   .   ,   .   |   .   ,   .   |   .   ,   .   |   .   ,   .
E-------------------0-------2-0-------------0-------2-------0-----|
B-0-------0-3-2-0-2---3-2-4-----4-5-------2---3-2-3---0-3-2-----2-|
G-0-------0---------------------------------------------------3---|
D---------0-------2-------4-------5-------------------0---2---4---|
A-----------------------------------------1-------2---------------|
D-5---------------------------------------------------------------|

  |   .   ,   .   |   .   ,   .   |   .   ,   .   |   .   ,   .
E-----------------------------7---------------7---------------7---|
B-----------------0-2-0---0-------0-2-0---0-------0-2-0---0-------|
G-4---------------------3---------------3---------------3---------|
D-5---------------0---------------2---------------4---------------|
A-----------------------------------------------------------------|
D-----5---4---2---0---------------2---------------4---------------|

  |   .   ,   .   |   .   ,   .   |   .   ,   .   |   .   ,   .
E-------------------0-------2-0---0-3-2-0---0-------2-0-----------|
B-0-------0-3-2-0-2---3-2-4-----4---------2---3-2-3-----3-0-3-2-0-|
G-0-------------------------------0-------------------------------|
D---------0-------2-------4-------------------------------0-------|
A-----------------------------------------1-------2---------------|
D-5---------------------------------------------------------------|

  |   .   ,   .   |   .   ,   .   |   .   ,   .   |   .   ,   .
E---0-------------------------------------------------------------|
B-2---3-2---2-0---0-----0-------0-------0-------0-------0-------0-|
G---------3-----3-------------------------------------------------|
D-2-------4---------------0-------2-------4-------5-------0-------|
A-----------------------------------------------------------------|
D-------------------------0-------2-------4-------5-------0-------|

  |   .   ,   .   |   .   ,   .   |   .   ,   .   |   .   ,   .
E-----------------------------------------------------------------|
B-------0---------0-----------------------------------------------|
G---------------3-------------------------------------------------|
D-2-------4-------------------------------------------------------|
A-----------------------------------------------------------------|
D-2-------4-------------------------------------------------------|
Tap to rate this tab
# A B C D E F G H I J K L M N O P Q R S T U V W X Y Z