Song name
# A B C D E F G H I J K L M N O P Q R S T U V W X Y Z

Domenico Scarlatti - K032-sonata In Dm tab

Sonata K.32/L.423 - Domenico Scarlatti (1685 - 1757)

Tab by Dima.s - dstepanov5@hotmail.com

Key Em (transcribed from Dm)

  Part I

                                            BII      tr                tr
e|--0-2-3-2-0-|-8-----|-2-3-5-3-2-|-7-----|-----2-----|-0-----|---------|----||
B|--0---------|-5-----|-4---------|-5-----|-4-5---5-4-|---0---|---------|----||
G|------------|---8-9-|-----------|---3-4-|-2---------|-0---2-|-0-2-0---|---*||
D|--2---------|-7-----|-----------|-------|-4---------|-------|-------4-|-2--||
A|------------|-0-----|-0---------|-------|-----------|-----0-|-2-----2-|---*||
E|--0---------|-------|-----------|-3-----|-2---------|---3---|---------|-0--||


  Part II

e||------------|---4-5-|-----------|---2-3-|-----------|-2-3-5-3-2-|
B||--0-1-3-1-0-|-1-----|---0-1-0---|-0-----|-----0-----|-1---------|
G||*-----------|-------|-2-------2-|-0-----|-0-2---2-0-|-----------|
D||--2---------|-2-----|-0-------0-|---0---|-----------|-------2-1-|
A||*-----------|-0-----|-----------|-------|-----------|-0-------2-|
E||--0---------|-----3-|-2---------|-----3-|-3---------|-----------|


    tr                                      tr
e|-----------|-----------|-----------|-------|---0-2-0---|-0-----|
B|-----------|---0-------|-0-1-3-1-0-|-1-----|-4-------4-|-------|
G|-----------|-3---------|-----------|-------|-----------|-------|
D|-2-4-5-4-2-|-----------|-2---------|---1-2-|-----------|---1-2-|
A|-3---------|---2-0-----|-----------|-0-----|-2---------|-3-2-3-|
E|---------3-|-2-----3-2-|-3---------|-------|-----------|-------|


e|-2-3-5-3-2-|-7-----|-2-3-5-0---|-0--||
B|-----------|-0-----|---------4-|----||
G|-----------|-0-----|-----------|---*||
D|-1---------|---1-2-|-----------|----||
A|-----------|-------|-0-----2-2-|---*||
E|-----------|-0-2-3-|-----------|-0--||


Tap to rate this tab
 
# A B C D E F G H I J K L M N O P Q R S T U V W X Y Z